0
SECTION
2
HEADER
9
$LTSCALE
40
1.0
9
$LIMMIN
10
1009
20
0
9
$LIMMAX
10
10474
20
14449
9
$EXTMIN
10
1009
20
0
9
$EXTMAX
10
10474
20
14449
9
$SNAPMODE
70
0
9
$SNAPUNIT
10
1.0
20
1.0
9
$GRIDMODE
70
0
9
$GRIDUNIT
10
1.0
20
1.0
9
$ORTHOMODE
70
0
9
$TEXTSTYLE
7
txt
9
$CLAYER
8
1
9
$CECOLOR
62
7
9
$CELTYPE
6
CONTINUOUS
9
$PLINEWID
40
0.0
9
$OSMODE
70
0
9
$FILLMODE
70
1
9
$CHAMFERA
40
0.5
9
$CHAMFERB
40
0.5
9
$SCOORDS
70
1
9
$FILLETRAD
40
0.5
9
$INSBASE
10
0.0
20
0.0
9
$SPLFRAME
70
0
9
$SPLINESEGS
70
8
0
ENDSEC
0
SECTION
2
TABLES
0
TABLE
2
LTYPE
70
9
0
LTYPE
2
CONTINUOUS
70
64
3
Solid line
72
65
73
0
40
0.0
0
ENDTAB
0
TABLE
2
STYLE
70
1
0
STYLE
2
ROMANS
70
0
40
0.000
41
1.000
50
0.000
71
0
42
0.000
3
ROMANS
4

0
ENDTAB
0
TABLE
2
LAYER
70
10
0
LAYER
2
1
70
0
62
7
6
CONTINUOUS
0
LAYER
2
2
70
0
62
7
6
CONTINUOUS
0
LAYER
2
3
70
0
62
7
6
CONTINUOUS
0
LAYER
2
4
70
0
62
7
6
CONTINUOUS
0
LAYER
2
5
70
0
62
7
6
CONTINUOUS
0
LAYER
2
6
70
0
62
7
6
CONTINUOUS
0
LAYER
2
7
70
0
62
7
6
CONTINUOUS
0
LAYER
2
8
70
0
62
7
6
CONTINUOUS
0
LAYER
2
9
70
0
62
7
6
CONTINUOUS
0
LAYER
2
10
70
0
62
7
6
CONTINUOUS
0
ENDTAB
0
ENDSEC
0
SECTION
2
ENTITIES
0
POLYLINE
8
0
62
4
66
1
40
1
41
1
0
VERTEX
8
0
10
10353
20
14238
0
VERTEX
8
0
10
10264
20
14238
0
SEQEND
0
POLYLINE
8
0
62
5
66
1
40
1
41
1
0
VERTEX
8
0
10
10264
20
14419
0
VERTEX
8
0
10
10176
20
14419
0
SEQEND
0
POLYLINE
8
0
62
5
66
1
40
20
41
20
0
VERTEX
8
0
10
10444
20
14419
0
VERTEX
8
0
10
10444
20
14372
0
VERTEX
8
0
10
10444
20
14330
0
VERTEX
8
0
10
10444
20
14284
0
VERTEX
8
0
10
10444
20
14238
0
VERTEX
8
0
10
10444
20
14196
0
VERTEX
8
0
10
10444
20
14149
0
VERTEX
8
0
10
10444
20
14103
0
VERTEX
8
0
10
10444
20
14061
0
VERTEX
8
0
10
10444
20
14015
0
VERTEX
8
0
10
10444
20
13969
0
VERTEX
8
0
10
10444
20
13926
0
VERTEX
8
0
10
10444
20
13880
0
VERTEX
8
0
10
10444
20
13834
0
VERTEX
8
0
10
10444
20
13788
0
VERTEX
8
0
10
10444
20
13745
0
VERTEX
8
0
10
10444
20
13699
0
VERTEX
8
0
10
10444
20
13653
0
VERTEX
8
0
10
10444
20
13610
0
VERTEX
8
0
10
10444
20
13565
0
VERTEX
8
0
10
10444
20
13519
0
VERTEX
8
0
10
10444
20
13476
0
VERTEX
8
0
10
10444
20
13430
0
VERTEX
8
0
10
10444
20
13383
0
VERTEX
8
0
10
10444
20
13341
0
VERTEX
8
0
10
10444
20
13295
0
VERTEX
8
0
10
10444
20
13248
0
VERTEX
8
0
10
10444
20
13206
0
VERTEX
8
0
10
10444
20
13160
0
VERTEX
8
0
10
10444
20
13115
0
VERTEX
8
0
10
10444
20
13068
0
VERTEX
8
0
10
10444
20
13026
0
VERTEX
8
0
10
10444
20
12980
0
VERTEX
8
0
10
10444
20
12934
0
VERTEX
8
0
10
10444
20
12890
0
VERTEX
8
0
10
10444
20
12844
0
VERTEX
8
0
10
10444
20
12798
0
VERTEX
8
0
10
10444
20
12756
0
VERTEX
8
0
10
10444
20
12710
0
VERTEX
8
0
10
10444
20
12664
0
VERTEX
8
0
10
10444
20
12622
0
VERTEX
8
0
10
10444
20
12576
0
VERTEX
8
0
10
10444
20
12529
0
VERTEX
8
0
10
10444
20
12487
0
VERTEX
8
0
10
10444
20
12441
0
VERTEX
8
0
10
10444
20
12394
0
VERTEX
8
0
10
10444
20
12351
0
VERTEX
8
0
10
10444
20
12306
0
VERTEX
8
0
10
10444
20
12260
0
VERTEX
8
0
10
10444
20
12214
0
VERTEX
8
0
10
10444
20
12171
0
VERTEX
8
0
10
10444
20
12125
0
VERTEX
8
0
10
10444
20
12079
0
VERTEX
8
0
10
10444
20
12037
0
VERTEX
8
0
10
10444
20
11991
0
VERTEX
8
0
10
10444
20
11945
0
VERTEX
8
0
10
10444
20
11901
0
VERTEX
8
0
10
10444
20
11856
0
VERTEX
8
0
10
10444
20
11809
0
VERTEX
8
0
10
10444
20
11767
0
VERTEX
8
0
10
10444
20
11721
0
VERTEX
8
0
10
10444
20
11675
0
VERTEX
8
0
10
10444
20
11632
0
VERTEX
8
0
10
10444
20
11586
0
VERTEX
8
0
10
10444
20
11541
0
VERTEX
8
0
10
10444
20
11495
0
VERTEX
8
0
10
10444
20
11452
0
VERTEX
8
0
10
10444
20
11405
0
VERTEX
8
0
10
10444
20
11359
0
VERTEX
8
0
10
10444
20
11317
0
VERTEX
8
0
10
10444
20
11270
0
VERTEX
8
0
10
10444
20
11225
0
VERTEX
8
0
10
10444
20
11182
0
VERTEX
8
0
10
10444
20
11136
0
VERTEX
8
0
10
10444
20
11090
0
VERTEX
8
0
10
10444
20
11048
0
VERTEX
8
0
10
10444
20
11002
0
VERTEX
8
0
10
10444
20
10956
0
VERTEX
8
0
10
10444
20
10912
0
VERTEX
8
0
10
10444
20
10866
0
VERTEX
8
0
10
10444
20
10820
0
VERTEX
8
0
10
10444
20
10778
0
VERTEX
8
0
10
10444
20
10732
0
VERTEX
8
0
10
10444
20
10686
0
VERTEX
8
0
10
10444
20
10640
0
VERTEX
8
0
10
10444
20
10598
0
VERTEX
8
0
10
10444
20
10551
0
VERTEX
8
0
10
10444
20
10505
0
VERTEX
8
0
10
10444
20
10463
0
VERTEX
8
0
10
10444
20
10416
0
VERTEX
8
0
10
10444
20
10370
0
VERTEX
8
0
10
10444
20
10328
0
VERTEX
8
0
10
10444
20
10282
0
VERTEX
8
0
10
10444
20
10236
0
VERTEX
8
0
10
10444
20
10193
0
VERTEX
8
0
10
10444
20
10147
0
VERTEX
8
0
10
10444
20
10101
0
VERTEX
8
0
10
10444
20
10059
0
VERTEX
8
0
10
10444
20
10013
0
VERTEX
8
0
10
10444
20
9967
0
VERTEX
8
0
10
10444
20
9920
0
VERTEX
8
0
10
10444
20
9878
0
VERTEX
8
0
10
10444
20
9831
0
VERTEX
8
0
10
10444
20
9785
0
VERTEX
8
0
10
10444
20
9743
0
VERTEX
8
0
10
10444
20
9697
0
VERTEX
8
0
10
10444
20
9651
0
VERTEX
8
0
10
10444
20
9608
0
VERTEX
8
0
10
10444
20
9563
0
VERTEX
8
0
10
10444
20
9517
0
VERTEX
8
0
10
10444
20
9474
0
VERTEX
8
0
10
10444
20
9427
0
VERTEX
8
0
10
10444
20
9381
0
VERTEX
8
0
10
10444
20
9339
0
VERTEX
8
0
10
10444
20
9292
0
VERTEX
8
0
10
10444
20
9247
0
VERTEX
8
0
10
10444
20
9204
0
VERTEX
8
0
10
10444
20
9158
0
VERTEX
8
0
10
10444
20
9112
0
VERTEX
8
0
10
10444
20
9066
0
VERTEX
8
0
10
10444
20
9024
0
VERTEX
8
0
10
10444
20
8978
0
VERTEX
8
0
10
10444
20
8931
0
VERTEX
8
0
10
10444
20
8888
0
VERTEX
8
0
10
10444
20
8842
0
VERTEX
8
0
10
10444
20
8797
0
VERTEX
8
0
10
10444
20
8754
0
VERTEX
8
0
10
10444
20
8708
0
VERTEX
8
0
10
10444
20
8662
0
VERTEX
8
0
10
10444
20
8620
0
VERTEX
8
0
10
10444
20
8573
0
VERTEX
8
0
10
10444
20
8527
0
VERTEX
8
0
10
10444
20
8485
0
VERTEX
8
0
10
10444
20
8438
0
VERTEX
8
0
10
10444
20
8392
0
VERTEX
8
0
10
10444
20
8346
0
VERTEX
8
0
10
10444
20
8304
0
VERTEX
8
0
10
10444
20
8258
0
VERTEX
8
0
10
10444
20
8211
0
VERTEX
8
0
10
10444
20
8169
0
VERTEX
8
0
10
10444
20
8123
0
VERTEX
8
0
10
10444
20
8077
0
VERTEX
8
0
10
10444
20
8035
0
VERTEX
8
0
10
10444
20
7989
0
VERTEX
8
0
10
10444
20
7942
0
VERTEX
8
0
10
10444
20
7900
0
VERTEX
8
0
10
10444
20
7853
0
VERTEX
8
0
10
10444
20
7807
0
VERTEX
8
0
10
10444
20
7765
0
VERTEX
8
0
10
10444
20
7719
0
VERTEX
8
0
10
10444
20
7673
0
VERTEX
8
0
10
10444
20
7630
0
VERTEX
8
0
10
10444
20
7585
0
VERTEX
8
0
10
10444
20
7539
0
VERTEX
8
0
10
10444
20
7492
0
VERTEX
8
0
10
10444
20
7449
0
VERTEX
8
0
10
10444
20
7403
0
VERTEX
8
0
10
10444
20
7357
0
VERTEX
8
0
10
10444
20
7314
0
VERTEX
8
0
10
10444
20
7268
0
VERTEX
8
0
10
10444
20
7223
0
VERTEX
8
0
10
10444
20
7180
0
VERTEX
8
0
10
10444
20
7134
0
VERTEX
8
0
10
10444
20
7088
0
VERTEX
8
0
10
10444
20
7046
0
VERTEX
8
0
10
10444
20
7000
0
VERTEX
8
0
10
10444
20
6952
0
VERTEX
8
0
10
10444
20
6910
0
VERTEX
8
0
10
10444
20
6864
0
VERTEX
8
0
10
10444
20
6818
0
VERTEX
8
0
10
10444
20
6776
0
VERTEX
8
0
10
10444
20
6730
0
VERTEX
8
0
10
10444
20
6684
0
VERTEX
8
0
10
10444
20
6638
0
VERTEX
8
0
10
10444
20
6595
0
VERTEX
8
0
10
10444
20
6549
0
VERTEX
8
0
10
10444
20
6503
0
VERTEX
8
0
10
10444
20
6460
0
VERTEX
8
0
10
10444
20
6414
0
VERTEX
8
0
10
10444
20
6368
0
VERTEX
8
0
10
10444
20
6326
0
VERTEX
8
0
10
10444
20
6280
0
VERTEX
8
0
10
10444
20
6233
0
VERTEX
8
0
10
10444
20
6191
0
VERTEX
8
0
10
10444
20
6145
0
VERTEX
8
0
10
10444
20
6099
0
VERTEX
8
0
10
10444
20
6056
0
VERTEX
8
0
10
10444
20
6011
0
VERTEX
8
0
10
10444
20
5964
0
VERTEX
8
0
10
10444
20
5918
0
SEQEND
0
POLYLINE
8
0
62
5
66
1
40
20
41
20
0
VERTEX
8
0
10
10444
20
5918
0
VERTEX
8
0
10
10444
20
5875
0
VERTEX
8
0
10
10444
20
5829
0
VERTEX
8
0
10
10444
20
5783
0
VERTEX
8
0
10
10444
20
5741
0
VERTEX
8
0
10
10444
20
5695
0
VERTEX
8
0
10
10444
20
5649
0
VERTEX
8
0
10
10444
20
5606
0
VERTEX
8
0
10
10444
20
5561
0
VERTEX
8
0
10
10444
20
5514
0
VERTEX
8
0
10
10444
20
5471
0
VERTEX
8
0
10
10444
20
5425
0
VERTEX
8
0
10
10444
20
5379
0
VERTEX
8
0
10
10444
20
5336
0
VERTEX
8
0
10
10444
20
5290
0
VERTEX
8
0
10
10444
20
5245
0
VERTEX
8
0
10
10444
20
5202
0
VERTEX
8
0
10
10444
20
5156
0
VERTEX
8
0
10
10444
20
5110
0
VERTEX
8
0
10
10444
20
5064
0
VERTEX
8
0
10
10444
20
5022
0
VERTEX
8
0
10
10444
20
4974
0
VERTEX
8
0
10
10444
20
4929
0
VERTEX
8
0
10
10444
20
4886
0
VERTEX
8
0
10
10444
20
4840
0
VERTEX
8
0
10
10444
20
4794
0
VERTEX
8
0
10
10444
20
4752
0
VERTEX
8
0
10
10444
20
4706
0
VERTEX
8
0
10
10444
20
4660
0
VERTEX
8
0
10
10444
20
4617
0
VERTEX
8
0
10
10444
20
4571
0
VERTEX
8
0
10
10444
20
4525
0
VERTEX
8
0
10
10444
20
4482
0
VERTEX
8
0
10
10444
20
4436
0
VERTEX
8
0
10
10444
20
4390
0
VERTEX
8
0
10
10444
20
3447
0
VERTEX
8
0
10
10444
20
3401
0
VERTEX
8
0
10
10444
20
3355
0
VERTEX
8
0
10
10444
20
3312
0
VERTEX
8
0
10
10444
20
3267
0
VERTEX
8
0
10
10444
20
3221
0
VERTEX
8
0
10
10444
20
3178
0
VERTEX
8
0
10
10444
20
3132
0
VERTEX
8
0
10
10444
20
3086
0
VERTEX
8
0
10
10444
20
3043
0
VERTEX
8
0
10
10444
20
2996
0
VERTEX
8
0
10
10444
20
2951
0
VERTEX
8
0
10
10444
20
2908
0
VERTEX
8
0
10
10444
20
2862
0
VERTEX
8
0
10
10444
20
2816
0
VERTEX
8
0
10
10444
20
2770
0
VERTEX
8
0
10
10444
20
2728
0
VERTEX
8
0
10
10444
20
2682
0
VERTEX
8
0
10
10444
20
2636
0
VERTEX
8
0
10
10444
20
2593
0
VERTEX
8
0
10
10444
20
2547
0
VERTEX
8
0
10
10444
20
2501
0
VERTEX
8
0
10
10444
20
2458
0
VERTEX
8
0
10
10444
20
2412
0
VERTEX
8
0
10
10444
20
2366
0
VERTEX
8
0
10
10444
20
2323
0
VERTEX
8
0
10
10444
20
2277
0
VERTEX
8
0
10
10444
20
2231
0
VERTEX
8
0
10
10444
20
2189
0
VERTEX
8
0
10
10444
20
2143
0
VERTEX
8
0
10
10444
20
2097
0
VERTEX
8
0
10
10444
20
2055
0
VERTEX
8
0
10
10444
20
2008
0
VERTEX
8
0
10
10444
20
1962
0
VERTEX
8
0
10
10444
20
1915
0
VERTEX
8
0
10
10444
20
1873
0
VERTEX
8
0
10
10444
20
1827
0
VERTEX
8
0
10
10444
20
1781
0
VERTEX
8
0
10
10444
20
1738
0
VERTEX
8
0
10
10444
20
1693
0
VERTEX
8
0
10
10444
20
1647
0
VERTEX
8
0
10
10444
20
1604
0
VERTEX
8
0
10
10444
20
1558
0
VERTEX
8
0
10
10444
20
1511
0
VERTEX
8
0
10
10444
20
1469
0
VERTEX
8
0
10
10444
20
1422
0
VERTEX
8
0
10
10444
20
1377
0
VERTEX
8
0
10
10444
20
1334
0
VERTEX
8
0
10
10444
20
1288
0
VERTEX
8
0
10
10444
20
1242
0
VERTEX
8
0
10
10444
20
1196
0
VERTEX
8
0
10
10444
20
1154
0
VERTEX
8
0
10
10444
20
1108
0
VERTEX
8
0
10
10444
20
1062
0
VERTEX
8
0
10
10444
20
1018
0
VERTEX
8
0
10
10444
20
972
0
VERTEX
8
0
10
10444
20
927
0
VERTEX
8
0
10
10444
20
884
0
VERTEX
8
0
10
10444
20
838
0
VERTEX
8
0
10
10444
20
792
0
VERTEX
8
0
10
10444
20
750
0
VERTEX
8
0
10
10444
20
703
0
VERTEX
8
0
10
10444
20
657
0
VERTEX
8
0
10
10444
20
615
0
VERTEX
8
0
10
10444
20
569
0
VERTEX
8
0
10
10444
20
522
0
VERTEX
8
0
10
10444
20
480
0
VERTEX
8
0
10
10444
20
434
0
VERTEX
8
0
10
10444
20
388
0
VERTEX
8
0
10
10444
20
341
0
VERTEX
8
0
10
10444
20
299
0
VERTEX
8
0
10
10444
20
253
0
VERTEX
8
0
10
10444
20
207
0
VERTEX
8
0
10
10444
20
165
0
VERTEX
8
0
10
10444
20
119
0
VERTEX
8
0
10
10444
20
73
0
VERTEX
8
0
10
10444
20
30
0
SEQEND
0
POLYLINE
8
0
62
4
66
1
40
1
41
1
0
VERTEX
8
0
10
10444
20
14419
0
VERTEX
8
0
10
10264
20
14419
0
SEQEND
0
POLYLINE
8
0
62
3
66
1
40
1
41
1
0
VERTEX
8
0
10
10444
20
14238
0
VERTEX
8
0
10
10353
20
14238
0
SEQEND
0
POLYLINE
8
0
62
3
66
1
40
1
41
1
0
VERTEX
8
0
10
10444
20
14149
0
VERTEX
8
0
10
10353
20
14149
0
SEQEND
0
POLYLINE
8
0
62
3
66
1
40
1
41
1
0
VERTEX
8
0
10
10444
20
14330
0
VERTEX
8
0
10
10353
20
14330
0
SEQEND
0
POLYLINE
8
0
62
3
66
1
40
1
41
1
0
VERTEX
8
0
10
10444
20
14372
0
VERTEX
8
0
10
10353
20
14372
0
SEQEND
0
POLYLINE
8
0
62
3
66
1
40
1
41
1
0
VERTEX
8
0
10
10444
20
14196
0
VERTEX
8
0
10
10353
20
14196
0
SEQEND
0
POLYLINE
8
0
62
3
66
1
40
1
41
1
0
VERTEX
8
0
10
10444
20
14284
0
VERTEX
8
0
10
10353
20
14284
0
SEQEND
0
POLYLINE
8
0
62
5
66
1
40
1
41
1
0
VERTEX
8
0
10
10264
20
13699
0
VERTEX
8
0
10
10176
20
13699
0
SEQEND
0
POLYLINE
8
0
62
4
66
1
40
1
41
1
0
VERTEX
8
0
10
10353
20
13699
0
VERTEX
8
0
10
10264
20
13699
0
SEQEND
0
POLYLINE
8
0
62
4
66
1
40
1
41
1
0
VERTEX
8
0
10
10353
20
13880
0
VERTEX
8
0
10
10264
20
13880
0
SEQEND
0
POLYLINE
8
0
62
4
66
1
40
1
41
1
0
VERTEX
8
0
10
10353
20
14061
0
VERTEX
8
0
10
10264
20
14061
0
SEQEND
0
POLYLINE
8
0
62
4
66
1
40
1
41
1
0
VERTEX
8
0
10
10353
20
13341
0
VERTEX
8
0
10
10264
20
13341
0
SEQEND
0
POLYLINE
8
0
62
4
66
1
40
1
41
1
0
VERTEX
8
0
10
10353
20
13160
0
VERTEX
8
0
10
10264
20
13160
0
SEQEND
0
POLYLINE
8
0
62
4
66
1
40
1
41
1
0
VERTEX
8
0
10
10353
20
13519
0
VERTEX
8
0
10
10264
20
13519
0
SEQEND
0
POLYLINE
8
0
62
3
66
1
40
1
41
1
0
VERTEX
8
0
10
10444
20
13565
0
VERTEX
8
0
10
10353
20
13565
0
SEQEND
0
POLYLINE
8
0
62
3
66
1
40
1
41
1
0
VERTEX
8
0
10
10444
20
13295
0
VERTEX
8
0
10
10353
20
13295
0
SEQEND
0
POLYLINE
8
0
62
3
66
1
40
1
41
1
0
VERTEX
8
0
10
10444
20
13248
0
VERTEX
8
0
10
10353
20
13248
0
SEQEND
0
POLYLINE
8
0
62
3
66
1
40
1
41
1
0
VERTEX
8
0
10
10444
20
13206
0
VERTEX
8
0
10
10353
20
13206
0
SEQEND
0
POLYLINE
8
0
62
3
66
1
40
1
41
1
0
VERTEX
8
0
10
10444
20
13160
0
VERTEX
8
0
10
10353
20
13160
0
SEQEND
0
POLYLINE
8
0
62
3
66
1
40
1
41
1
0
VERTEX
8
0
10
10444
20
13519
0
VERTEX
8
0
10
10353
20
13519
0
SEQEND
0
POLYLINE
8
0
62
3
66
1
40
1
41
1
0
VERTEX
8
0
10
10444
20
13610
0
VERTEX
8
0
10
10353
20
13610
0
SEQEND
0
POLYLINE
8
0
62
3
66
1
40
1
41
1
0
VERTEX
8
0
10
10444
20
13476
0
VERTEX
8
0
10
10353
20
13476
0
SEQEND
0
POLYLINE
8
0
62
3
66
1
40
1
41
1
0
VERTEX
8
0
10
10444
20
13430
0
VERTEX
8
0
10
10353
20
13430
0
SEQEND
0
POLYLINE
8
0
62
3
66
1
40
1
41
1
0
VERTEX
8
0
10
10444
20
13383
0
VERTEX
8
0
10
10353
20
13383
0
SEQEND
0
POLYLINE
8
0
62
3
66
1
40
1
41
1
0
VERTEX
8
0
10
10444
20
13341
0
VERTEX
8
0
10
10353
20
13341
0
SEQEND
0
POLYLINE
8
0
62
3
66
1
40
1
41
1
0
VERTEX
8
0
10
10444
20
13699
0
VERTEX
8
0
10
10353
20
13699
0
SEQEND
0
POLYLINE
8
0
62
3
66
1
40
1
41
1
0
VERTEX
8
0
10
10444
20
13926
0
VERTEX
8
0
10
10353
20
13926
0
SEQEND
0
POLYLINE
8
0
62
3
66
1
40
1
41
1
0
VERTEX
8
0
10
10444
20
13969
0
VERTEX
8
0
10
10353
20
13969
0
SEQEND
0
POLYLINE
8
0
62
3
66
1
40
1
41
1
0
VERTEX
8
0
10
10444
20
14103
0
VERTEX
8
0
10
10353
20
14103
0
SEQEND
0
POLYLINE
8
0
62
3
66
1
40
1
41
1
0
VERTEX
8
0
10
10444
20
14061
0
VERTEX
8
0
10
10353
20
14061
0
SEQEND
0
POLYLINE
8
0
62
3
66
1
40
1
41
1
0
VERTEX
8
0
10
10444
20
14015
0
VERTEX
8
0
10
10353
20
14015
0
SEQEND
0
POLYLINE
8
0
62
3
66
1
40
1
41
1
0
VERTEX
8
0
10
10444
20
13880
0
VERTEX
8
0
10
10353
20
13880
0
SEQEND
0
POLYLINE
8
0
62
3
66
1
40
1
41
1
0
VERTEX
8
0
10
10444
20
13834
0
VERTEX
8
0
10
10353
20
13834
0
SEQEND
0
POLYLINE
8
0
62
3
66
1
40
1
41
1
0
VERTEX
8
0
10
10444
20
13788
0
VERTEX
8
0
10
10353
20
13788
0
SEQEND
0
POLYLINE
8
0
62
3
66
1
40
1
41
1
0
VERTEX
8
0
10
10444
20
13745
0
VERTEX
8
0
10
10353
20
13745
0
SEQEND
0
POLYLINE
8
0
62
3
66
1
40
1
41
1
0
VERTEX
8
0
10
10444
20
13653
0
VERTEX
8
0
10
10353
20
13653
0
SEQEND
0
POLYLINE
8
0
62
4
66
1
40
1
41
1
0
VERTEX
8
0
10
10353
20
12798
0
VERTEX
8
0
10
10264
20
12798
0
SEQEND
0
POLYLINE
8
0
62
6
66
1
40
1
41
1
0
VERTEX
8
0
10
10176
20
12980
0
VERTEX
8
0
10
10084
20
12980
0
SEQEND
0
POLYLINE
8
0
62
5
66
1
40
1
41
1
0
VERTEX
8
0
10
10264
20
12980
0
VERTEX
8
0
10
10176
20
12980
0
SEQEND
0
POLYLINE
8
0
62
4
66
1
40
1
41
1
0
VERTEX
8
0
10
10353
20
12980
0
VERTEX
8
0
10
10264
20
12980
0
SEQEND
0
POLYLINE
8
0
62
4
66
1
40
1
41
1
0
VERTEX
8
0
10
10353
20
12260
0
VERTEX
8
0
10
10264
20
12260
0
SEQEND
0
POLYLINE
8
0
62
5
66
1
40
1
41
1
0
VERTEX
8
0
10
10264
20
12260
0
VERTEX
8
0
10
10176
20
12260
0
SEQEND
0
POLYLINE
8
0
62
4
66
1
40
1
41
1
0
VERTEX
8
0
10
10353
20
12441
0
VERTEX
8
0
10
10264
20
12441
0
SEQEND
0
POLYLINE
8
0
62
4
66
1
40
1
41
1
0
VERTEX
8
0
10
10353
20
12622
0
VERTEX
8
0
10
10264
20
12622
0
SEQEND
0
POLYLINE
8
0
62
3
66
1
40
1
41
1
0
VERTEX
8
0
10
10444
20
12171
0
VERTEX
8
0
10
10353
20
12171
0
SEQEND
0
POLYLINE
8
0
62
3
66
1
40
1
41
1
0
VERTEX
8
0
10
10444
20
12214
0
VERTEX
8
0
10
10353
20
12214
0
SEQEND
0
POLYLINE
8
0
62
3
66
1
40
1
41
1
0
VERTEX
8
0
10
10444
20
12529
0
VERTEX
8
0
10
10353
20
12529
0
SEQEND
0
POLYLINE
8
0
62
3
66
1
40
1
41
1
0
VERTEX
8
0
10
10444
20
12487
0
VERTEX
8
0
10
10353
20
12487
0
SEQEND
0
POLYLINE
8
0
62
3
66
1
40
1
41
1
0
VERTEX
8
0
10
10444
20
12441
0
VERTEX
8
0
10
10353
20
12441
0
SEQEND
0
POLYLINE
8
0
62
3
66
1
40
1
41
1
0
VERTEX
8
0
10
10444
20
12576
0
VERTEX
8
0
10
10353
20
12576
0
SEQEND
0
POLYLINE
8
0
62
3
66
1
40
1
41
1
0
VERTEX
8
0
10
10444
20
12306
0
VERTEX
8
0
10
10353
20
12306
0
SEQEND
0
POLYLINE
8
0
62
3
66
1
40
1
41
1
0
VERTEX
8
0
10
10444
20
12260
0
VERTEX
8
0
10
10353
20
12260
0
SEQEND
0
POLYLINE
8
0
62
3
66
1
40
1
41
1
0
VERTEX
8
0
10
10444
20
12394
0
VERTEX
8
0
10
10353
20
12394
0
SEQEND
0
POLYLINE
8
0
62
3
66
1
40
1
41
1
0
VERTEX
8
0
10
10444
20
12351
0
VERTEX
8
0
10
10353
20
12351
0
SEQEND
0
POLYLINE
8
0
62
3
66
1
40
1
41
1
0
VERTEX
8
0
10
10444
20
12622
0
VERTEX
8
0
10
10353
20
12622
0
SEQEND
0
POLYLINE
8
0
62
3
66
1
40
1
41
1
0
VERTEX
8
0
10
10444
20
13115
0
VERTEX
8
0
10
10353
20
13115
0
SEQEND
0
POLYLINE
8
0
62
3
66
1
40
1
41
1
0
VERTEX
8
0
10
10444
20
13068
0
VERTEX
8
0
10
10353
20
13068
0
SEQEND
0
POLYLINE
8
0
62
3
66
1
40
1
41
1
0
VERTEX
8
0
10
10444
20
12798
0
VERTEX
8
0
10
10353
20
12798
0
SEQEND
0
POLYLINE
8
0
62
3
66
1
40
1
41
1
0
VERTEX
8
0
10
10444
20
12756
0
VERTEX
8
0
10
10353
20
12756
0
SEQEND
0
POLYLINE
8
0
62
3
66
1
40
1
41
1
0
VERTEX
8
0
10
10444
20
12980
0
VERTEX
8
0
10
10353
20
12980
0
SEQEND
0
POLYLINE
8
0
62
3
66
1
40
1
41
1
0
VERTEX
8
0
10
10444
20
12934
0
VERTEX
8
0
10
10353
20
12934
0
SEQEND
0
POLYLINE
8
0
62
3
66
1
40
1
41
1
0
VERTEX
8
0
10
10444
20
12890
0
VERTEX
8
0
10
10353
20
12890
0
SEQEND
0
POLYLINE
8
0
62
3
66
1
40
1
41
1
0
VERTEX
8
0
10
10444
20
12710
0
VERTEX
8
0
10
10353
20
12710
0
SEQEND
0
POLYLINE
8
0
62
3
66
1
40
1
41
1
0
VERTEX
8
0
10
10444
20
12664
0
VERTEX
8
0
10
10353
20
12664
0
SEQEND
0
POLYLINE
8
0
62
3
66
1
40
1
41
1
0
VERTEX
8
0
10
10444
20
12844
0
VERTEX
8
0
10
10353
20
12844
0
SEQEND
0
POLYLINE
8
0
62
3
66
1
40
1
41
1
0
VERTEX
8
0
10
10444
20
13026
0
VERTEX
8
0
10
10353
20
13026
0
SEQEND
0
POLYLINE
8
0
62
4
66
1
40
1
41
1
0
VERTEX
8
0
10
10353
20
11901
0
VERTEX
8
0
10
10264
20
11901
0
SEQEND
0
POLYLINE
8
0
62
4
66
1
40
1
41
1
0
VERTEX
8
0
10
10353
20
11721
0
VERTEX
8
0
10
10264
20
11721
0
SEQEND
0
POLYLINE
8
0
62
4
66
1
40
1
41
1
0
VERTEX
8
0
10
10353
20
12079
0
VERTEX
8
0
10
10264
20
12079
0
SEQEND
0
POLYLINE
8
0
62
4
66
1
40
1
41
1
0
VERTEX
8
0
10
10353
20
11182
0
VERTEX
8
0
10
10264
20
11182
0
SEQEND
0
POLYLINE
8
0
62
4
66
1
40
1
41
1
0
VERTEX
8
0
10
10353
20
11359
0
VERTEX
8
0
10
10264
20
11359
0
SEQEND
0
POLYLINE
8
0
62
4
66
1
40
1
41
1
0
VERTEX
8
0
10
10353
20
11541
0
VERTEX
8
0
10
10264
20
11541
0
SEQEND
0
POLYLINE
8
0
62
5
66
1
40
1
41
1
0
VERTEX
8
0
10
10264
20
11541
0
VERTEX
8
0
10
10176
20
11541
0
SEQEND
0
POLYLINE
8
0
62
6
66
1
40
1
41
1
0
VERTEX
8
0
10
10176
20
11541
0
VERTEX
8
0
10
10084
20
11541
0
SEQEND
0
POLYLINE
8
0
62
3
66
1
40
1
41
1
0
VERTEX
8
0
10
10444
20
11225
0
VERTEX
8
0
10
10353
20
11225
0
SEQEND
0
POLYLINE
8
0
62
3
66
1
40
1
41
1
0
VERTEX
8
0
10
10444
20
11270
0
VERTEX
8
0
10
10353
20
11270
0
SEQEND
0
POLYLINE
8
0
62
3
66
1
40
1
41
1
0
VERTEX
8
0
10
10444
20
11495
0
VERTEX
8
0
10
10353
20
11495
0
SEQEND
0
POLYLINE
8
0
62
3
66
1
40
1
41
1
0
VERTEX
8
0
10
10444
20
11452
0
VERTEX
8
0
10
10353
20
11452
0
SEQEND
0
POLYLINE
8
0
62
3
66
1
40
1
41
1
0
VERTEX
8
0
10
10444
20
11632
0
VERTEX
8
0
10
10353
20
11632
0
SEQEND
0
POLYLINE
8
0
62
3
66
1
40
1
41
1
0
VERTEX
8
0
10
10444
20
11541
0
VERTEX
8
0
10
10353
20
11541
0
SEQEND
0
POLYLINE
8
0
62
3
66
1
40
1
41
1
0
VERTEX
8
0
10
10444
20
11182
0
VERTEX
8
0
10
10353
20
11182
0
SEQEND
0
POLYLINE
8
0
62
3
66
1
40
1
41
1
0
VERTEX
8
0
10
10444
20
11317
0
VERTEX
8
0
10
10353
20
11317
0
SEQEND
0
POLYLINE
8
0
62
3
66
1
40
1
41
1
0
VERTEX
8
0
10
10444
20
11405
0
VERTEX
8
0
10
10353
20
11405
0
SEQEND
0
POLYLINE
8
0
62
3
66
1
40
1
41
1
0
VERTEX
8
0
10
10444
20
11359
0
VERTEX
8
0
10
10353
20
11359
0
SEQEND
0
POLYLINE
8
0
62
3
66
1
40
1
41
1
0
VERTEX
8
0
10
10444
20
11586
0
VERTEX
8
0
10
10353
20
11586
0
SEQEND
0
POLYLINE
8
0
62
3
66
1
40
1
41
1
0
VERTEX
8
0
10
10444
20
11991
0
VERTEX
8
0
10
10353
20
11991
0
SEQEND
0
POLYLINE
8
0
62
3
66
1
40
1
41
1
0
VERTEX
8
0
10
10444
20
11945
0
VERTEX
8
0
10
10353
20
11945
0
SEQEND
0
POLYLINE
8
0
62
3
66
1
40
1
41
1
0
VERTEX
8
0
10
10444
20
12125
0
VERTEX
8
0
10
10353
20
12125
0
SEQEND
0
POLYLINE
8
0
62
3
66
1
40
1
41
1
0
VERTEX
8
0
10
10444
20
12079
0
VERTEX
8
0
10
10353
20
12079
0
SEQEND
0
POLYLINE
8
0
62
3
66
1
40
1
41
1
0
VERTEX
8
0
10
10444
20
12037
0
VERTEX
8
0
10
10353
20
12037
0
SEQEND
0
POLYLINE
8
0
62
3
66
1
40
1
41
1
0
VERTEX
8
0
10
10444
20
11809
0
VERTEX
8
0
10
10353
20
11809
0
SEQEND
0
POLYLINE
8
0
62
3
66
1
40
1
41
1
0
VERTEX
8
0
10
10444
20
11767
0
VERTEX
8
0
10
10353
20
11767
0
SEQEND
0
POLYLINE
8
0
62
3
66
1
40
1
41
1
0
VERTEX
8
0
10
10444
20
11675
0
VERTEX
8
0
10
10353
20
11675
0
SEQEND
0
POLYLINE
8
0
62
3
66
1
40
1
41
1
0
VERTEX
8
0
10
10444
20
11721
0
VERTEX
8
0
10
10353
20
11721
0
SEQEND
0
POLYLINE
8
0
62
3
66
1
40
1
41
1
0
VERTEX
8
0
10
10444
20
11901
0
VERTEX
8
0
10
10353
20
11901
0
SEQEND
0
POLYLINE
8
0
62
3
66
1
40
1
41
1
0
VERTEX
8
0
10
10444
20
11856
0
VERTEX
8
0
10
10353
20
11856
0
SEQEND
0
POLYLINE
8
0
62
5
66
1
40
20
41
20
0
VERTEX
8
0
10
9157
20
14372
0
VERTEX
8
0
10
9157
20
14330
0
VERTEX
8
0
10
9157
20
14284
0
VERTEX
8
0
10
9157
20
14238
0
VERTEX
8
0
10
9157
20
14196
0
VERTEX
8
0
10
9157
20
14149
0
VERTEX
8
0
10
9157
20
14103
0
VERTEX
8
0
10
9157
20
14061
0
VERTEX
8
0
10
9157
20
14015
0
VERTEX
8
0
10
9157
20
13969
0
VERTEX
8
0
10
9157
20
13926
0
VERTEX
8
0
10
9157
20
13880
0
VERTEX
8
0
10
9157
20
13834
0
VERTEX
8
0
10
9157
20
13788
0
VERTEX
8
0
10
9157
20
13745
0
VERTEX
8
0
10
9157
20
13699
0
VERTEX
8
0
10
9157
20
13653
0
VERTEX
8
0
10
9157
20
13610
0
VERTEX
8
0
10
9157
20
13565
0
VERTEX
8
0
10
9157
20
13519
0
VERTEX
8
0
10
9157
20
13476
0
VERTEX
8
0
10
9157
20
13430
0
VERTEX
8
0
10
9157
20
13383
0
VERTEX
8
0
10
9157
20
13341
0
VERTEX
8
0
10
9157
20
13295
0
VERTEX
8
0
10
9157
20
13248
0
VERTEX
8
0
10
9157
20
13206
0
VERTEX
8
0
10
9157
20
13160
0
VERTEX
8
0
10
9157
20
13115
0
VERTEX
8
0
10
9157
20
13068
0
VERTEX
8
0
10
9157
20
13026
0
VERTEX
8
0
10
9157
20
12980
0
VERTEX
8
0
10
9157
20
12934
0
VERTEX
8
0
10
9157
20
12890
0
VERTEX
8
0
10
9157
20
12844
0
VERTEX
8
0
10
9157
20
12798
0
VERTEX
8
0
10
9157
20
12756
0
VERTEX
8
0
10
9157
20
12710
0
VERTEX
8
0
10
9157
20
12664
0
VERTEX
8
0
10
9157
20
12622
0
VERTEX
8
0
10
9157
20
12576
0
VERTEX
8
0
10
9157
20
12529
0
VERTEX
8
0
10
9157
20
12487
0
VERTEX
8
0
10
9157
20
12441
0
VERTEX
8
0
10
9157
20
12394
0
VERTEX
8
0
10
9157
20
12351
0
VERTEX
8
0
10
9157
20
12306
0
VERTEX
8
0
10
9157
20
12260
0
VERTEX
8
0
10
9157
20
12214
0
VERTEX
8
0
10
9157
20
12171
0
VERTEX
8
0
10
9157
20
12125
0
VERTEX
8
0
10
9157
20
12079
0
VERTEX
8
0
10
9157
20
12037
0
VERTEX
8
0
10
9157
20
11991
0
VERTEX
8
0
10
9157
20
11945
0
VERTEX
8
0
10
9157
20
11901
0
VERTEX
8
0
10
9157
20
11856
0
VERTEX
8
0
10
9157
20
11809
0
VERTEX
8
0
10
9157
20
11767
0
VERTEX
8
0
10
9157
20
11721
0
VERTEX
8
0
10
9157
20
11675
0
VERTEX
8
0
10
9157
20
11632
0
VERTEX
8
0
10
9157
20
11586
0
VERTEX
8
0
10
9157
20
11541
0
VERTEX
8
0
10
9157
20
11495
0
VERTEX
8
0
10
9157
20
11452
0
VERTEX
8
0
10
9157
20
11405
0
VERTEX
8
0
10
9157
20
11359
0
VERTEX
8
0
10
9157
20
11317
0
VERTEX
8
0
10
9157
20
11270
0
VERTEX
8
0
10
9157
20
11225
0
VERTEX
8
0
10
9157
20
11182
0
VERTEX
8
0
10
9157
20
11136
0
VERTEX
8
0
10
9157
20
11090
0
VERTEX
8
0
10
9157
20
11048
0
VERTEX
8
0
10
9157
20
11002
0
VERTEX
8
0
10
9157
20
10956
0
VERTEX
8
0
10
9157
20
10912
0
VERTEX
8
0
10
9157
20
10866
0
VERTEX
8
0
10
9157
20
10820
0
VERTEX
8
0
10
9157
20
10778
0
VERTEX
8
0
10
9157
20
10732
0
VERTEX
8
0
10
9157
20
10686
0
VERTEX
8
0
10
9157
20
10640
0
VERTEX
8
0
10
9157
20
10598
0
VERTEX
8
0
10
9157
20
10551
0
VERTEX
8
0
10
9157
20
10505
0
VERTEX
8
0
10
9157
20
10463
0
VERTEX
8
0
10
9157
20
10416
0
VERTEX
8
0
10
9157
20
10370
0
VERTEX
8
0
10
9157
20
10328
0
VERTEX
8
0
10
9157
20
10282
0
VERTEX
8
0
10
9157
20
10236
0
VERTEX
8
0
10
9157
20
10193
0
VERTEX
8
0
10
9157
20
10147
0
VERTEX
8
0
10
9157
20
10101
0
VERTEX
8
0
10
9157
20
10059
0
VERTEX
8
0
10
9157
20
10013
0
VERTEX
8
0
10
9157
20
9967
0
VERTEX
8
0
10
9157
20
9920
0
VERTEX
8
0
10
9157
20
9878
0
VERTEX
8
0
10
9157
20
9831
0
VERTEX
8
0
10
9157
20
9785
0
VERTEX
8
0
10
9157
20
9743
0
VERTEX
8
0
10
9157
20
9697
0
VERTEX
8
0
10
9157
20
9651
0
VERTEX
8
0
10
9157
20
9608
0
VERTEX
8
0
10
9157
20
9563
0
VERTEX
8
0
10
9157
20
9517
0
VERTEX
8
0
10
9157
20
9474
0
VERTEX
8
0
10
9157
20
9427
0
VERTEX
8
0
10
9157
20
9381
0
VERTEX
8
0
10
9157
20
9339
0
VERTEX
8
0
10
9157
20
9292
0
VERTEX
8
0
10
9157
20
9247
0
VERTEX
8
0
10
9157
20
9204
0
VERTEX
8
0
10
9157
20
9158
0
VERTEX
8
0
10
9157
20
9112
0
VERTEX
8
0
10
9157
20
9066
0
VERTEX
8
0
10
9157
20
9024
0
VERTEX
8
0
10
9157
20
8978
0
VERTEX
8
0
10
9157
20
8931
0
VERTEX
8
0
10
9157
20
8888
0
VERTEX
8
0
10
9157
20
8842
0
VERTEX
8
0
10
9157
20
8797
0
VERTEX
8
0
10
9157
20
8754
0
VERTEX
8
0
10
9157
20
8708
0
VERTEX
8
0
10
9157
20
8662
0
VERTEX
8
0
10
9157
20
8620
0
VERTEX
8
0
10
9157
20
8573
0
VERTEX
8
0
10
9157
20
8527
0
VERTEX
8
0
10
9157
20
8485
0
VERTEX
8
0
10
9157
20
8438
0
VERTEX
8
0
10
9157
20
8392
0
VERTEX
8
0
10
9157
20
8346
0
VERTEX
8
0
10
9157
20
8304
0
VERTEX
8
0
10
9157
20
8258
0
VERTEX
8
0
10
9157
20
8211
0
VERTEX
8
0
10
9157
20
8169
0
VERTEX
8
0
10
9157
20
8123
0
VERTEX
8
0
10
9157
20
8077
0
VERTEX
8
0
10
9157
20
8035
0
VERTEX
8
0
10
9157
20
7989
0
VERTEX
8
0
10
9157
20
7942
0
VERTEX
8
0
10
9157
20
7900
0
VERTEX
8
0
10
9157
20
7853
0
VERTEX
8
0
10
9157
20
7807
0
VERTEX
8
0
10
9157
20
7765
0
VERTEX
8
0
10
9157
20
7719
0
VERTEX
8
0
10
9157
20
7673
0
VERTEX
8
0
10
9157
20
7630
0
VERTEX
8
0
10
9157
20
7585
0
VERTEX
8
0
10
9157
20
7539
0
VERTEX
8
0
10
9157
20
7492
0
VERTEX
8
0
10
9157
20
7449
0
VERTEX
8
0
10
9157
20
7403
0
VERTEX
8
0
10
9157
20
7357
0
VERTEX
8
0
10
9157
20
7314
0
VERTEX
8
0
10
9157
20
7268
0
VERTEX
8
0
10
9157
20
7223
0
VERTEX
8
0
10
9157
20
7180
0
VERTEX
8
0
10
9157
20
7134
0
VERTEX
8
0
10
9157
20
7088
0
VERTEX
8
0
10
9157
20
7046
0
VERTEX
8
0
10
9157
20
7000
0
VERTEX
8
0
10
9157
20
6952
0
VERTEX
8
0
10
9157
20
6910
0
VERTEX
8
0
10
9157
20
6864
0
VERTEX
8
0
10
9157
20
6818
0
VERTEX
8
0
10
9157
20
6776
0
VERTEX
8
0
10
9157
20
6730
0
VERTEX
8
0
10
9157
20
6684
0
VERTEX
8
0
10
9157
20
6638
0
VERTEX
8
0
10
9157
20
6595
0
VERTEX
8
0
10
9157
20
6549
0
VERTEX
8
0
10
9157
20
6503
0
VERTEX
8
0
10
9157
20
6460
0
VERTEX
8
0
10
9157
20
6414
0
VERTEX
8
0
10
9157
20
6368
0
VERTEX
8
0
10
9157
20
6326
0
VERTEX
8
0
10
9157
20
6280
0
VERTEX
8
0
10
9157
20
6233
0
VERTEX
8
0
10
9157
20
6191
0
VERTEX
8
0
10
9157
20
6145
0
VERTEX
8
0
10
9157
20
6099
0
VERTEX
8
0
10
9157
20
6056
0
VERTEX
8
0
10
9157
20
6011
0
VERTEX
8
0
10
9157
20
5964
0
VERTEX
8
0
10
9157
20
5918
0
VERTEX
8
0
10
9157
20
5875
0
SEQEND
0
POLYLINE
8
0
62
5
66
1
40
20
41
20
0
VERTEX
8
0
10
9157
20
5875
0
VERTEX
8
0
10
9157
20
5829
0
VERTEX
8
0
10
9157
20
5783
0
VERTEX
8
0
10
9157
20
5741
0
VERTEX
8
0
10
9157
20
5695
0
VERTEX
8
0
10
9157
20
5649
0
VERTEX
8
0
10
9157
20
5606
0
VERTEX
8
0
10
9157
20
5561
0
VERTEX
8
0
10
9157
20
5514
0
VERTEX
8
0
10
9157
20
5471
0
VERTEX
8
0
10
9157
20
5425
0
VERTEX
8
0
10
9157
20
5379
0
VERTEX
8
0
10
9157
20
5336
0
VERTEX
8
0
10
9157
20
5290
0
VERTEX
8
0
10
9157
20
5245
0
VERTEX
8
0
10
9157
20
5202
0
VERTEX
8
0
10
9157
20
5156
0
VERTEX
8
0
10
9157
20
5110
0
VERTEX
8
0
10
9157
20
5064
0
VERTEX
8
0
10
9157
20
5022
0
VERTEX
8
0
10
9157
20
4974
0
VERTEX
8
0
10
9157
20
4929
0
VERTEX
8
0
10
9157
20
4886
0
VERTEX
8
0
10
9157
20
4840
0
VERTEX
8
0
10
9157
20
4794
0
VERTEX
8
0
10
9157
20
4752
0
VERTEX
8
0
10
9157
20
4706
0
VERTEX
8
0
10
9157
20
4660
0
VERTEX
8
0
10
9157
20
4617
0
VERTEX
8
0
10
9157
20
4571
0
VERTEX
8
0
10
9157
20
4525
0
VERTEX
8
0
10
9157
20
4482
0
VERTEX
8
0
10
9157
20
4436
0
VERTEX
8
0
10
9157
20
4390
0
VERTEX
8
0
10
9157
20
4344
0
VERTEX
8
0
10
9157
20
4302
0
VERTEX
8
0
10
9157
20
4255
0
VERTEX
8
0
10
9157
20
4209
0
VERTEX
8
0
10
9157
20
4167
0
VERTEX
8
0
10
9157
20
4121
0
VERTEX
8
0
10
9157
20
4075
0
VERTEX
8
0
10
9157
20
4033
0
VERTEX
8
0
10
9157
20
3986
0
VERTEX
8
0
10
9157
20
3940
0
VERTEX
8
0
10
9157
20
3897
0
VERTEX
8
0
10
9157
20
3876
0
VERTEX
8
0
10
9157
20
3851
0
VERTEX
8
0
10
9157
20
3805
0
VERTEX
8
0
10
9157
20
3763
0
VERTEX
8
0
10
9157
20
3717
0
VERTEX
8
0
10
9157
20
3671
0
VERTEX
8
0
10
9157
20
3628
0
VERTEX
8
0
10
9157
20
3583
0
VERTEX
8
0
10
9157
20
3536
0
VERTEX
8
0
10
9157
20
3496
0
VERTEX
8
0
10
9157
20
3447
0
VERTEX
8
0
10
9157
20
3401
0
VERTEX
8
0
10
9157
20
3355
0
VERTEX
8
0
10
9157
20
3312
0
VERTEX
8
0
10
9157
20
3267
0
VERTEX
8
0
10
9157
20
3221
0
VERTEX
8
0
10
9157
20
3178
0
VERTEX
8
0
10
9157
20
3132
0
VERTEX
8
0
10
9157
20
3086
0
VERTEX
8
0
10
9157
20
3043
0
VERTEX
8
0
10
9157
20
2996
0
VERTEX
8
0
10
9157
20
2951
0
VERTEX
8
0
10
9157
20
2908
0
VERTEX
8
0
10
9157
20
2862
0
VERTEX
8
0
10
9157
20
2816
0
VERTEX
8
0
10
9157
20
2770
0
VERTEX
8
0
10
9157
20
2728
0
VERTEX
8
0
10
9157
20
2682
0
VERTEX
8
0
10
9157
20
2636
0
VERTEX
8
0
10
9157
20
2593
0
VERTEX
8
0
10
9157
20
2547
0
VERTEX
8
0
10
9157
20
2501
0
VERTEX
8
0
10
9157
20
2458
0
VERTEX
8
0
10
9157
20
2412
0
VERTEX
8
0
10
9157
20
2366
0
VERTEX
8
0
10
9157
20
2323
0
VERTEX
8
0
10
9157
20
2277
0
VERTEX
8
0
10
9157
20
2231
0
VERTEX
8
0
10
9157
20
2189
0
VERTEX
8
0
10
9157
20
2143
0
VERTEX
8
0
10
9157
20
2097
0
VERTEX
8
0
10
9157
20
2055
0
VERTEX
8
0
10
9157
20
2008
0
VERTEX
8
0
10
9157
20
1962
0
VERTEX
8
0
10
9157
20
1915
0
VERTEX
8
0
10
9157
20
1873
0
VERTEX
8
0
10
9157
20
1827
0
VERTEX
8
0
10
9157
20
1781
0
VERTEX
8
0
10
9157
20
1738
0
VERTEX
8
0
10
9157
20
1693
0
VERTEX
8
0
10
9157
20
1647
0
VERTEX
8
0
10
9157
20
1604
0
VERTEX
8
0
10
9157
20
1558
0
VERTEX
8
0
10
9157
20
1511
0
VERTEX
8
0
10
9157
20
1469
0
VERTEX
8
0
10
9157
20
1422
0
VERTEX
8
0
10
9157
20
1377
0
VERTEX
8
0
10
9157
20
1334
0
VERTEX
8
0
10
9157
20
1288
0
VERTEX
8
0
10
9157
20
1242
0
VERTEX
8
0
10
9157
20
1196
0
VERTEX
8
0
10
9157
20
1154
0
VERTEX
8
0
10
9157
20
1108
0
VERTEX
8
0
10
9157
20
1062
0
VERTEX
8
0
10
9157
20
1018
0
VERTEX
8
0
10
9157
20
972
0
VERTEX
8
0
10
9157
20
927
0
VERTEX
8
0
10
9157
20
884
0
VERTEX
8
0
10
9157
20
838
0
VERTEX
8
0
10
9157
20
792
0
VERTEX
8
0
10
9157
20
750
0
VERTEX
8
0
10
9157
20
703
0
VERTEX
8
0
10
9157
20
657
0
VERTEX
8
0
10
9157
20
615
0
VERTEX
8
0
10
9157
20
569
0
VERTEX
8
0
10
9157
20
522
0
VERTEX
8
0
10
9157
20
480
0
VERTEX
8
0
10
9157
20
434
0
VERTEX
8
0
10
9157
20
388
0
VERTEX
8
0
10
9157
20
341
0
VERTEX
8
0
10
9158
20
299
0
VERTEX
8
0
10
9158
20
253
0
VERTEX
8
0
10
9158
20
207
0
VERTEX
8
0
10
9158
20
165
0
VERTEX
8
0
10
9158
20
119
0
VERTEX
8
0
10
9158
20
73
0
VERTEX
8
0
10
9157
20
30
0
SEQEND
0
POLYLINE
8
0
62
4
66
1
40
1
41
1
0
VERTEX
8
0
10
9066
20
14238
0
VERTEX
8
0
10
8978
20
14238
0
SEQEND
0
POLYLINE
8
0
62
4
66
1
40
1
41
1
0
VERTEX
8
0
10
8978
20
14419
0
VERTEX
8
0
10
9066
20
14419
0
SEQEND
0
POLYLINE
8
0
62
6
66
1
40
1
41
1
0
VERTEX
8
0
10
8593
20
14419
0
VERTEX
8
0
10
8978
20
14419
0
SEQEND
0
POLYLINE
8
0
62
4
66
1
40
1
41
1
0
VERTEX
8
0
10
9066
20
13880
0
VERTEX
8
0
10
8978
20
13880
0
SEQEND
0
POLYLINE
8
0
62
5
66
1
40
1
41
1
0
VERTEX
8
0
10
8978
20
13699
0
VERTEX
8
0
10
8890
20
13699
0
SEQEND
0
POLYLINE
8
0
62
4
66
1
40
1
41
1
0
VERTEX
8
0
10
9066
20
13699
0
VERTEX
8
0
10
8978
20
13699
0
SEQEND
0
POLYLINE
8
0
62
4
66
1
40
1
41
1
0
VERTEX
8
0
10
9066
20
14061
0
VERTEX
8
0
10
8978
20
14061
0
SEQEND
0
POLYLINE
8
0
62
4
66
1
40
1
41
1
0
VERTEX
8
0
10
9066
20
13160
0
VERTEX
8
0
10
8978
20
13160
0
SEQEND
0
POLYLINE
8
0
62
4
66
1
40
1
41
1
0
VERTEX
8
0
10
9066
20
13341
0
VERTEX
8
0
10
8978
20
13341
0
SEQEND
0
POLYLINE
8
0
62
4
66
1
40
1
41
1
0
VERTEX
8
0
10
9066
20
13519
0
VERTEX
8
0
10
8978
20
13519
0
SEQEND
0
POLYLINE
8
0
62
3
66
1
40
1
41
1
0
VERTEX
8
0
10
9157
20
13610
0
VERTEX
8
0
10
9066
20
13610
0
SEQEND
0
POLYLINE
8
0
62
3
66
1
40
1
41
1
0
VERTEX
8
0
10
9157
20
13476
0
VERTEX
8
0
10
9066
20
13476
0
SEQEND
0
POLYLINE
8
0
62
3
66
1
40
1
41
1
0
VERTEX
8
0
10
9157
20
13565
0
VERTEX
8
0
10
9066
20
13565
0
SEQEND
0
POLYLINE
8
0
62
3
66
1
40
1
41
1
0
VERTEX
8
0
10
9157
20
13430
0
VERTEX
8
0
10
9066
20
13430
0
SEQEND
0
POLYLINE
8
0
62
3
66
1
40
1
41
1
0
VERTEX
8
0
10
9157
20
13519
0
VERTEX
8
0
10
9066
20
13519
0
SEQEND
0
POLYLINE
8
0
62
3
66
1
40
1
41
1
0
VERTEX
8
0
10
9157
20
13206
0
VERTEX
8
0
10
9066
20
13206
0
SEQEND
0
POLYLINE
8
0
62
3
66
1
40
1
41
1
0
VERTEX
8
0
10
9157
20
13160
0
VERTEX
8
0
10
9066
20
13160
0
SEQEND
0
POLYLINE
8
0
62
3
66
1
40
1
41
1
0
VERTEX
8
0
10
9157
20
13341
0
VERTEX
8
0
10
9066
20
13341
0
SEQEND
0
POLYLINE
8
0
62
3
66
1
40
1
41
1
0
VERTEX
8
0
10
9157
20
13383
0
VERTEX
8
0
10
9066
20
13383
0
SEQEND
0
POLYLINE
8
0
62
3
66
1
40
1
41
1
0
VERTEX
8
0
10
9157
20
13248
0
VERTEX
8
0
10
9066
20
13248
0
SEQEND
0
POLYLINE
8
0
62
3
66
1
40
1
41
1
0
VERTEX
8
0
10
9157
20
13295
0
VERTEX
8
0
10
9066
20
13295
0
SEQEND
0
POLYLINE
8
0
62
3
66
1
40
1
41
1
0
VERTEX
8
0
10
9157
20
14103
0
VERTEX
8
0
10
9066
20
14103
0
SEQEND
0
POLYLINE
8
0
62
3
66
1
40
1
41
1
0
VERTEX
8
0
10
9157
20
13926
0
VERTEX
8
0
10
9066
20
13926
0
SEQEND
0
POLYLINE
8
0
62
3
66
1
40
1
41
1
0
VERTEX
8
0
10
9157
20
13969
0
VERTEX
8
0
10
9066
20
13969
0
SEQEND
0
POLYLINE
8
0
62
3
66
1
40
1
41
1
0
VERTEX
8
0
10
9157
20
14015
0
VERTEX
8
0
10
9066
20
14015
0
SEQEND
0
POLYLINE
8
0
62
3
66
1
40
1
41
1
0
VERTEX
8
0
10
9157
20
14061
0
VERTEX
8
0
10
9066
20
14061
0
SEQEND
0
POLYLINE
8
0
62
3
66
1
40
1
41
1
0
VERTEX
8
0
10
9157
20
13788
0
VERTEX
8
0
10
9066
20
13788
0
SEQEND
0
POLYLINE
8
0
62
3
66
1
40
1
41
1
0
VERTEX
8
0
10
9157
20
13834
0
VERTEX
8
0
10
9066
20
13834
0
SEQEND
0
POLYLINE
8
0
62
3
66
1
40
1
41
1
0
VERTEX
8
0
10
9157
20
13880
0
VERTEX
8
0
10
9066
20
13880
0
SEQEND
0
POLYLINE
8
0
62
3
66
1
40
1
41
1
0
VERTEX
8
0
10
9157
20
13745
0
VERTEX
8
0
10
9066
20
13745
0
SEQEND
0
POLYLINE
8
0
62
3
66
1
40
1
41
1
0
VERTEX
8
0
10
9157
20
13699
0
VERTEX
8
0
10
9066
20
13699
0
SEQEND
0
POLYLINE
8
0
62
3
66
1
40
1
41
1
0
VERTEX
8
0
10
9157
20
13653
0
VERTEX
8
0
10
9066
20
13653
0
SEQEND
0
POLYLINE
8
0
62
3
66
1
40
1
41
1
0
VERTEX
8
0
10
9157
20
14149
0
VERTEX
8
0
10
9066
20
14149
0
SEQEND
0
POLYLINE
8
0
62
3
66
1
40
1
41
1
0
VERTEX
8
0
10
9157
20
14196
0
VERTEX
8
0
10
9066
20
14196
0
SEQEND
0
POLYLINE
8
0
62
3
66
1
40
1
41
1
0
VERTEX
8
0
10
9157
20
14238
0
VERTEX
8
0
10
9066
20
14238
0
SEQEND
0
POLYLINE
8
0
62
3
66
1
40
1
41
1
0
VERTEX
8
0
10
9157
20
14372
0
VERTEX
8
0
10
9066
20
14372
0
SEQEND
0
POLYLINE
8
0
62
3
66
1
40
1
41
1
0
VERTEX
8
0
10
9157
20
14330
0
VERTEX
8
0
10
9066
20
14330
0
SEQEND
0
POLYLINE
8
0
62
3
66
1
40
1
41
1
0
VERTEX
8
0
10
9157
20
14284
0
VERTEX
8
0
10
9066
20
14284
0
SEQEND
0
POLYLINE
8
0
62
3
66
1
40
1
41
1
0
VERTEX
8
0
10
9066
20
14419
0
VERTEX
8
0
10
9157
20
14419
0
SEQEND
0
POLYLINE
8
0
62
4
66
1
40
1
41
1
0
VERTEX
8
0
10
7929
20
14419
0
VERTEX
8
0
10
7749
20
14419
0
SEQEND
0
POLYLINE
8
0
62
5
66
1
40
20
41
20
0
VERTEX
8
0
10
7929
20
14419
0
VERTEX
8
0
10
7929
20
14372
0
VERTEX
8
0
10
7929
20
14330
0
VERTEX
8
0
10
7929
20
14284
0
VERTEX
8
0
10
7929
20
14238
0
VERTEX
8
0
10
7929
20
14196
0
VERTEX
8
0
10
7929
20
14149
0
VERTEX
8
0
10
7929
20
14103
0
VERTEX
8
0
10
7929
20
14061
0
VERTEX
8
0
10
7929
20
14015
0
VERTEX
8
0
10
7929
20
13969
0
VERTEX
8
0
10
7929
20
13926
0
VERTEX
8
0
10
7929
20
13880
0
VERTEX
8
0
10
7929
20
13834
0
VERTEX
8
0
10
7929
20
13788
0
VERTEX
8
0
10
7929
20
13745
0
VERTEX
8
0
10
7929
20
13699
0
VERTEX
8
0
10
7929
20
13653
0
VERTEX
8
0
10
7929
20
13610
0
VERTEX
8
0
10
7929
20
13565
0
VERTEX
8
0
10
7929
20
13519
0
VERTEX
8
0
10
7929
20
13476
0
VERTEX
8
0
10
7929
20
13430
0
VERTEX
8
0
10
7929
20
13383
0
VERTEX
8
0
10
7929
20
13341
0
VERTEX
8
0
10
7929
20
13295
0
VERTEX
8
0
10
7929
20
13248
0
VERTEX
8
0
10
7929
20
13206
0
VERTEX
8
0
10
7929
20
13160
0
VERTEX
8
0
10
7929
20
13115
0
VERTEX
8
0
10
7929
20
13068
0
VERTEX
8
0
10
7929
20
13026
0
VERTEX
8
0
10
7929
20
12980
0
VERTEX
8
0
10
7929
20
12934
0
VERTEX
8
0
10
7929
20
12890
0
VERTEX
8
0
10
7929
20
12844
0
VERTEX
8
0
10
7929
20
12798
0
VERTEX
8
0
10
7929
20
12756
0
VERTEX
8
0
10
7929
20
12710
0
VERTEX
8
0
10
7929
20
12664
0
VERTEX
8
0
10
7929
20
12622
0
VERTEX
8
0
10
7929
20
12576
0
VERTEX
8
0
10
7929
20
12529
0
VERTEX
8
0
10
7929
20
12487
0
VERTEX
8
0
10
7929
20
12441
0
VERTEX
8
0
10
7929
20
12394
0
VERTEX
8
0
10
7929
20
12351
0
VERTEX
8
0
10
7929
20
12306
0
VERTEX
8
0
10
7929
20
12260
0
VERTEX
8
0
10
7929
20
12214
0
VERTEX
8
0
10
7929
20
12171
0
VERTEX
8
0
10
7929
20
12125
0
VERTEX
8
0
10
7929
20
12079
0
VERTEX
8
0
10
7929
20
12037
0
VERTEX
8
0
10
7929
20
11991
0
VERTEX
8
0
10
7929
20
11945
0
VERTEX
8
0
10
7929
20
11901
0
VERTEX
8
0
10
7929
20
11856
0
VERTEX
8
0
10
7929
20
11809
0
VERTEX
8
0
10
7929
20
11767
0
VERTEX
8
0
10
7929
20
11721
0
VERTEX
8
0
10
7929
20
11675
0
VERTEX
8
0
10
7929
20
11632
0
VERTEX
8
0
10
7929
20
11586
0
VERTEX
8
0
10
7929
20
11541
0
VERTEX
8
0
10
7929
20
11495
0
VERTEX
8
0
10
7929
20
11452
0
VERTEX
8
0
10
7929
20
11405
0
VERTEX
8
0
10
7929
20
11359
0
VERTEX
8
0
10
7929
20
11317
0
VERTEX
8
0
10
7929
20
11270
0
VERTEX
8
0
10
7929
20
11225
0
VERTEX
8
0
10
7929
20
11182
0
VERTEX
8
0
10
7929
20
11136
0
VERTEX
8
0
10
7929
20
11090
0
VERTEX
8
0
10
7929
20
11048
0
VERTEX
8
0
10
7929
20
11002
0
VERTEX
8
0
10
7929
20
10956
0
VERTEX
8
0
10
7929
20
10912
0
VERTEX
8
0
10
7929
20
10866
0
VERTEX
8
0
10
7929
20
10820
0
VERTEX
8
0
10
7929
20
10778
0
VERTEX
8
0
10
7929
20
10732
0
VERTEX
8
0
10
7929
20
10686
0
VERTEX
8
0
10
7929
20
10640
0
VERTEX
8
0
10
7929
20
10598
0
VERTEX
8
0
10
7929
20
10551
0
VERTEX
8
0
10
7929
20
10505
0
VERTEX
8
0
10
7929
20
10463
0
VERTEX
8
0
10
7929
20
10416
0
VERTEX
8
0
10
7929
20
10370
0
VERTEX
8
0
10
7929
20
10328
0
VERTEX
8
0
10
7929
20
10282
0
VERTEX
8
0
10
7929
20
10236
0
VERTEX
8
0
10
7929
20
10193
0
VERTEX
8
0
10
7929
20
10147
0
VERTEX
8
0
10
7929
20
10101
0
VERTEX
8
0
10
7929
20
10059
0
VERTEX
8
0
10
7929
20
10013
0
VERTEX
8
0
10
7929
20
9967
0
VERTEX
8
0
10
7929
20
9920
0
VERTEX
8
0
10
7929
20
9878
0
VERTEX
8
0
10
7929
20
9831
0
VERTEX
8
0
10
7929
20
9785
0
VERTEX
8
0
10
7929
20
9743
0
VERTEX
8
0
10
7929
20
9697
0
VERTEX
8
0
10
7929
20
9651
0
VERTEX
8
0
10
7929
20
9608
0
VERTEX
8
0
10
7929
20
9563
0
VERTEX
8
0
10
7929
20
9517
0
VERTEX
8
0
10
7929
20
9474
0
VERTEX
8
0
10
7929
20
9427
0
VERTEX
8
0
10
7929
20
9381
0
VERTEX
8
0
10
7929
20
9339
0
VERTEX
8
0
10
7929
20
9292
0
VERTEX
8
0
10
7929
20
9247
0
VERTEX
8
0
10
7929
20
9204
0
VERTEX
8
0
10
7929
20
9158
0
VERTEX
8
0
10
7929
20
9112
0
VERTEX
8
0
10
7929
20
9066
0
VERTEX
8
0
10
7929
20
9024
0
VERTEX
8
0
10
7929
20
8978
0
VERTEX
8
0
10
7929
20
8931
0
VERTEX
8
0
10
7929
20
8888
0
VERTEX
8
0
10
7929
20
8842
0
VERTEX
8
0
10
7929
20
8797
0
VERTEX
8
0
10
7929
20
8754
0
VERTEX
8
0
10
7929
20
8708
0
VERTEX
8
0
10
7929
20
8662
0
VERTEX
8
0
10
7929
20
8620
0
VERTEX
8
0
10
7929
20
8573
0
VERTEX
8
0
10
7929
20
8527
0
VERTEX
8
0
10
7929
20
8485
0
VERTEX
8
0
10
7929
20
8438
0
VERTEX
8
0
10
7929
20
8392
0
VERTEX
8
0
10
7929
20
8346
0
VERTEX
8
0
10
7929
20
8304
0
VERTEX
8
0
10
7929
20
8258
0
VERTEX
8
0
10
7929
20
8211
0
VERTEX
8
0
10
7929
20
8169
0
VERTEX
8
0
10
7929
20
8123
0
VERTEX
8
0
10
7929
20
8077
0
VERTEX
8
0
10
7929
20
8035
0
VERTEX
8
0
10
7929
20
7989
0
VERTEX
8
0
10
7929
20
7942
0
VERTEX
8
0
10
7929
20
7900
0
VERTEX
8
0
10
7929
20
7853
0
VERTEX
8
0
10
7929
20
7807
0
VERTEX
8
0
10
7929
20
7765
0
VERTEX
8
0
10
7929
20
7719
0
VERTEX
8
0
10
7929
20
7673
0
VERTEX
8
0
10
7929
20
7630
0
VERTEX
8
0
10
7929
20
7585
0
VERTEX
8
0
10
7929
20
7539
0
VERTEX
8
0
10
7929
20
7492
0
VERTEX
8
0
10
7929
20
7449
0
VERTEX
8
0
10
7929
20
7403
0
VERTEX
8
0
10
7929
20
7357
0
VERTEX
8
0
10
7929
20
7314
0
VERTEX
8
0
10
7929
20
7268
0
VERTEX
8
0
10
7929
20
7223
0
VERTEX
8
0
10
7929
20
7180
0
VERTEX
8
0
10
7929
20
7134
0
VERTEX
8
0
10
7929
20
7088
0
VERTEX
8
0
10
7929
20
7046
0
VERTEX
8
0
10
7929
20
7000
0
VERTEX
8
0
10
7929
20
6952
0
VERTEX
8
0
10
7929
20
6910
0
VERTEX
8
0
10
7929
20
6864
0
VERTEX
8
0
10
7929
20
6818
0
VERTEX
8
0
10
7929
20
6776
0
VERTEX
8
0
10
7929
20
6730
0
VERTEX
8
0
10
7929
20
6684
0
VERTEX
8
0
10
7929
20
6638
0
VERTEX
8
0
10
7929
20
6595
0
VERTEX
8
0
10
7929
20
6549
0
VERTEX
8
0
10
7929
20
6503
0
VERTEX
8
0
10
7929
20
6460
0
VERTEX
8
0
10
7929
20
6414
0
VERTEX
8
0
10
7929
20
6368
0
VERTEX
8
0
10
7929
20
6326
0
VERTEX
8
0
10
7929
20
6280
0
VERTEX
8
0
10
7929
20
6233
0
VERTEX
8
0
10
7929
20
6191
0
VERTEX
8
0
10
7929
20
6145
0
VERTEX
8
0
10
7929
20
6099
0
VERTEX
8
0
10
7929
20
6056
0
VERTEX
8
0
10
7929
20
6011
0
VERTEX
8
0
10
7929
20
5964
0
VERTEX
8
0
10
7929
20
5918
0
SEQEND
0
POLYLINE
8
0
62
5
66
1
40
20
41
20
0
VERTEX
8
0
10
7929
20
5918
0
VERTEX
8
0
10
7929
20
5875
0
VERTEX
8
0
10
7929
20
5829
0
VERTEX
8
0
10
7929
20
5783
0
VERTEX
8
0
10
7929
20
5741
0
VERTEX
8
0
10
7929
20
5695
0
VERTEX
8
0
10
7929
20
5649
0
VERTEX
8
0
10
7929
20
5606
0
VERTEX
8
0
10
7929
20
5561
0
VERTEX
8
0
10
7929
20
5514
0
VERTEX
8
0
10
7929
20
5471
0
VERTEX
8
0
10
7929
20
5425
0
VERTEX
8
0
10
7929
20
5379
0
VERTEX
8
0
10
7929
20
5336
0
VERTEX
8
0
10
7929
20
5290
0
VERTEX
8
0
10
7929
20
5245
0
VERTEX
8
0
10
7929
20
5202
0
VERTEX
8
0
10
7929
20
5156
0
VERTEX
8
0
10
7929
20
5110
0
VERTEX
8
0
10
7929
20
5064
0
VERTEX
8
0
10
7929
20
5022
0
VERTEX
8
0
10
7929
20
4974
0
VERTEX
8
0
10
7929
20
4929
0
VERTEX
8
0
10
7929
20
4886
0
VERTEX
8
0
10
7929
20
4840
0
VERTEX
8
0
10
7929
20
4794
0
VERTEX
8
0
10
7929
20
4752
0
VERTEX
8
0
10
7929
20
4706
0
VERTEX
8
0
10
7929
20
4660
0
VERTEX
8
0
10
7929
20
4617
0
VERTEX
8
0
10
7929
20
4571
0
VERTEX
8
0
10
7929
20
4525
0
VERTEX
8
0
10
7929
20
4482
0
VERTEX
8
0
10
7929
20
4436
0
VERTEX
8
0
10
7929
20
4390
0
VERTEX
8
0
10
7929
20
4344
0
SEQEND
0
POLYLINE
8
0
62
3
66
1
40
1
41
1
0
VERTEX
8
0
10
7929
20
14372
0
VERTEX
8
0
10
7837
20
14372
0
SEQEND
0
POLYLINE
8
0
62
3
66
1
40
1
41
1
0
VERTEX
8
0
10
7929
20
14284
0
VERTEX
8
0
10
7837
20
14284
0
SEQEND
0
POLYLINE
8
0
62
3
66
1
40
1
41
1
0
VERTEX
8
0
10
7929
20
14330
0
VERTEX
8
0
10
7837
20
14330
0
SEQEND
0
POLYLINE
8
0
62
3
66
1
40
1
41
1
0
VERTEX
8
0
10
7929
20
14196
0
VERTEX
8
0
10
7837
20
14196
0
SEQEND
0
POLYLINE
8
0
62
3
66
1
40
1
41
1
0
VERTEX
8
0
10
7929
20
14149
0
VERTEX
8
0
10
7837
20
14149
0
SEQEND
0
POLYLINE
8
0
62
3
66
1
40
1
41
1
0
VERTEX
8
0
10
7929
20
14238
0
VERTEX
8
0
10
7837
20
14238
0
SEQEND
0
POLYLINE
8
0
62
4
66
1
40
1
41
1
0
VERTEX
8
0
10
7837
20
14238
0
VERTEX
8
0
10
7749
20
14238
0
SEQEND
0
POLYLINE
8
0
62
5
66
1
40
1
41
1
0
VERTEX
8
0
10
7749
20
14419
0
VERTEX
8
0
10
7658
20
14419
0
SEQEND
0
POLYLINE
8
0
62
3
66
1
40
1
41
1
0
VERTEX
8
0
10
7929
20
14061
0
VERTEX
8
0
10
7837
20
14061
0
SEQEND
0
POLYLINE
8
0
62
3
66
1
40
1
41
1
0
VERTEX
8
0
10
7929
20
14103
0
VERTEX
8
0
10
7837
20
14103
0
SEQEND
0
POLYLINE
8
0
62
3
66
1
40
1
41
1
0
VERTEX
8
0
10
7929
20
14015
0
VERTEX
8
0
10
7837
20
14015
0
SEQEND
0
POLYLINE
8
0
62
3
66
1
40
1
41
1
0
VERTEX
8
0
10
7929
20
13926
0
VERTEX
8
0
10
7837
20
13926
0
SEQEND
0
POLYLINE
8
0
62
3
66
1
40
1
41
1
0
VERTEX
8
0
10
7929
20
13969
0
VERTEX
8
0
10
7837
20
13969
0
SEQEND
0
POLYLINE
8
0
62
4
66
1
40
1
41
1
0
VERTEX
8
0
10
7837
20
14061
0
VERTEX
8
0
10
7749
20
14061
0
SEQEND
0
POLYLINE
8
0
62
3
66
1
40
1
41
1
0
VERTEX
8
0
10
7929
20
13880
0
VERTEX
8
0
10
7837
20
13880
0
SEQEND
0
POLYLINE
8
0
62
3
66
1
40
1
41
1
0
VERTEX
8
0
10
7929
20
13788
0
VERTEX
8
0
10
7837
20
13788
0
SEQEND
0
POLYLINE
8
0
62
3
66
1
40
1
41
1
0
VERTEX
8
0
10
7929
20
13834
0
VERTEX
8
0
10
7837
20
13834
0
SEQEND
0
POLYLINE
8
0
62
3
66
1
40
1
41
1
0
VERTEX
8
0
10
7929
20
13653
0
VERTEX
8
0
10
7837
20
13653
0
SEQEND
0
POLYLINE
8
0
62
3
66
1
40
1
41
1
0
VERTEX
8
0
10
7929
20
13745
0
VERTEX
8
0
10
7837
20
13745
0
SEQEND
0
POLYLINE
8
0
62
3
66
1
40
1
41
1
0
VERTEX
8
0
10
7929
20
13699
0
VERTEX
8
0
10
7837
20
13699
0
SEQEND
0
POLYLINE
8
0
62
4
66
1
40
1
41
1
0
VERTEX
8
0
10
7837
20
13699
0
VERTEX
8
0
10
7749
20
13699
0
SEQEND
0
POLYLINE
8
0
62
4
66
1
40
1
41
1
0
VERTEX
8
0
10
7837
20
13880
0
VERTEX
8
0
10
7749
20
13880
0
SEQEND
0
POLYLINE
8
0
62
5
66
1
40
1
41
1
0
VERTEX
8
0
10
7749
20
13699
0
VERTEX
8
0
10
7658
20
13699
0
SEQEND
0
POLYLINE
8
0
62
3
66
1
40
1
41
1
0
VERTEX
8
0
10
7929
20
13519
0
VERTEX
8
0
10
7837
20
13519
0
SEQEND
0
POLYLINE
8
0
62
3
66
1
40
1
41
1
0
VERTEX
8
0
10
7929
20
13610
0
VERTEX
8
0
10
7837
20
13610
0
SEQEND
0
POLYLINE
8
0
62
3
66
1
40
1
41
1
0
VERTEX
8
0
10
7929
20
13565
0
VERTEX
8
0
10
7837
20
13565
0
SEQEND
0
POLYLINE
8
0
62
3
66
1
40
1
41
1
0
VERTEX
8
0
10
7929
20
13430
0
VERTEX
8
0
10
7837
20
13430
0
SEQEND
0
POLYLINE
8
0
62
3
66
1
40
1
41
1
0
VERTEX
8
0
10
7929
20
13476
0
VERTEX
8
0
10
7837
20
13476
0
SEQEND
0
POLYLINE
8
0
62
4
66
1
40
1
41
1
0
VERTEX
8
0
10
7837
20
13519
0
VERTEX
8
0
10
7749
20
13519
0
SEQEND
0
POLYLINE
8
0
62
3
66
1
40
1
41
1
0
VERTEX
8
0
10
7929
20
13295
0
VERTEX
8
0
10
7837
20
13295
0
SEQEND
0
POLYLINE
8
0
62
3
66
1
40
1
41
1
0
VERTEX
8
0
10
7929
20
13341
0
VERTEX
8
0
10
7837
20
13341
0
SEQEND
0
POLYLINE
8
0
62
3
66
1
40
1
41
1
0
VERTEX
8
0
10
7929
20
13383
0
VERTEX
8
0
10
7837
20
13383
0
SEQEND
0
POLYLINE
8
0
62
3
66
1
40
1
41
1
0
VERTEX
8
0
10
7929
20
13206
0
VERTEX
8
0
10
7837
20
13206
0
SEQEND
0
POLYLINE
8
0
62
3
66
1
40
1
41
1
0
VERTEX
8
0
10
7929
20
13248
0
VERTEX
8
0
10
7837
20
13248
0
SEQEND
0
POLYLINE
8
0
62
3
66
1
40
1
41
1
0
VERTEX
8
0
10
7929
20
13160
0
VERTEX
8
0
10
7837
20
13160
0
SEQEND
0
POLYLINE
8
0
62
4
66
1
40
1
41
1
0
VERTEX
8
0
10
7837
20
13160
0
VERTEX
8
0
10
7749
20
13160
0
SEQEND
0
POLYLINE
8
0
62
4
66
1
40
1
41
1
0
VERTEX
8
0
10
7837
20
13341
0
VERTEX
8
0
10
7749
20
13341
0
SEQEND
0
POLYLINE
8
0
62
6
66
1
40
1
41
1
0
VERTEX
8
0
10
7658
20
14419
0
VERTEX
8
0
10
7365
20
14419
0
SEQEND
0
POLYLINE
8
0
62
3
66
1
40
1
41
1
0
VERTEX
8
0
10
7929
20
13026
0
VERTEX
8
0
10
7837
20
13026
0
SEQEND
0
POLYLINE
8
0
62
3
66
1
40
1
41
1
0
VERTEX
8
0
10
7929
20
13068
0
VERTEX
8
0
10
7837
20
13068
0
SEQEND
0
POLYLINE
8
0
62
3
66
1
40
1
41
1
0
VERTEX
8
0
10
7929
20
13115
0
VERTEX
8
0
10
7837
20
13115
0
SEQEND
0
POLYLINE
8
0
62
3
66
1
40
1
41
1
0
VERTEX
8
0
10
7929
20
12934
0
VERTEX
8
0
10
7837
20
12934
0
SEQEND
0
POLYLINE
8
0
62
3
66
1
40
1
41
1
0
VERTEX
8
0
10
7929
20
12980
0
VERTEX
8
0
10
7837
20
12980
0
SEQEND
0
POLYLINE
8
0
62
4
66
1
40
1
41
1
0
VERTEX
8
0
10
7837
20
12980
0
VERTEX
8
0
10
7749
20
12980
0
SEQEND
0
POLYLINE
8
0
62
6
66
1
40
1
41
1
0
VERTEX
8
0
10
7658
20
12980
0
VERTEX
8
0
10
7569
20
12980
0
SEQEND
0
POLYLINE
8
0
62
3
66
1
40
1
41
1
0
VERTEX
8
0
10
7929
20
12844
0
VERTEX
8
0
10
7837
20
12844
0
SEQEND
0
POLYLINE
8
0
62
3
66
1
40
1
41
1
0
VERTEX
8
0
10
7929
20
12890
0
VERTEX
8
0
10
7837
20
12890
0
SEQEND
0
POLYLINE
8
0
62
3
66
1
40
1
41
1
0
VERTEX
8
0
10
7929
20
12798
0
VERTEX
8
0
10
7837
20
12798
0
SEQEND
0
POLYLINE
8
0
62
3
66
1
40
1
41
1
0
VERTEX
8
0
10
7929
20
12664
0
VERTEX
8
0
10
7837
20
12664
0
SEQEND
0
POLYLINE
8
0
62
3
66
1
40
1
41
1
0
VERTEX
8
0
10
7929
20
12756
0
VERTEX
8
0
10
7837
20
12756
0
SEQEND
0
POLYLINE
8
0
62
3
66
1
40
1
41
1
0
VERTEX
8
0
10
7929
20
12710
0
VERTEX
8
0
10
7837
20
12710
0
SEQEND
0
POLYLINE
8
0
62
4
66
1
40
1
41
1
0
VERTEX
8
0
10
7837
20
12798
0
VERTEX
8
0
10
7749
20
12798
0
SEQEND
0
POLYLINE
8
0
62
5
66
1
40
1
41
1
0
VERTEX
8
0
10
7749
20
12980
0
VERTEX
8
0
10
7658
20
12980
0
SEQEND
0
POLYLINE
8
0
62
3
66
1
40
1
41
1
0
VERTEX
8
0
10
7929
20
12529
0
VERTEX
8
0
10
7837
20
12529
0
SEQEND
0
POLYLINE
8
0
62
3
66
1
40
1
41
1
0
VERTEX
8
0
10
7929
20
12622
0
VERTEX
8
0
10
7837
20
12622
0
SEQEND
0
POLYLINE
8
0
62
3
66
1
40
1
41
1
0
VERTEX
8
0
10
7929
20
12576
0
VERTEX
8
0
10
7837
20
12576
0
SEQEND
0
POLYLINE
8
0
62
3
66
1
40
1
41
1
0
VERTEX
8
0
10
7929
20
12441
0
VERTEX
8
0
10
7837
20
12441
0
SEQEND
0
POLYLINE
8
0
62
3
66
1
40
1
41
1
0
VERTEX
8
0
10
7929
20
12487
0
VERTEX
8
0
10
7837
20
12487
0
SEQEND
0
POLYLINE
8
0
62
4
66
1
40
1
41
1
0
VERTEX
8
0
10
7837
20
12441
0
VERTEX
8
0
10
7749
20
12441
0
SEQEND
0
POLYLINE
8
0
62
4
66
1
40
1
41
1
0
VERTEX
8
0
10
7837
20
12622
0
VERTEX
8
0
10
7749
20
12622
0
SEQEND
0
POLYLINE
8
0
62
3
66
1
40
1
41
1
0
VERTEX
8
0
10
7929
20
12351
0
VERTEX
8
0
10
7837
20
12351
0
SEQEND
0
POLYLINE
8
0
62
3
66
1
40
1
41
1
0
VERTEX
8
0
10
7929
20
12394
0
VERTEX
8
0
10
7837
20
12394
0
SEQEND
0
POLYLINE
8
0
62
3
66
1
40
1
41
1
0
VERTEX
8
0
10
7929
20
12306
0
VERTEX
8
0
10
7837
20
12306
0
SEQEND
0
POLYLINE
8
0
62
3
66
1
40
1
41
1
0
VERTEX
8
0
10
7929
20
12214
0
VERTEX
8
0
10
7837
20
12214
0
SEQEND
0
POLYLINE
8
0
62
3
66
1
40
1
41
1
0
VERTEX
8
0
10
7929
20
12171
0
VERTEX
8
0
10
7837
20
12171
0
SEQEND
0
POLYLINE
8
0
62
3
66
1
40
1
41
1
0
VERTEX
8
0
10
7929
20
12260
0
VERTEX
8
0
10
7837
20
12260
0
SEQEND
0
POLYLINE
8
0
62
4
66
1
40
1
41
1
0
VERTEX
8
0
10
7837
20
12260
0
VERTEX
8
0
10
7749
20
12260
0
SEQEND
0
POLYLINE
8
0
62
5
66
1
40
1
41
1
0
VERTEX
8
0
10
7749
20
12260
0
VERTEX
8
0
10
7658
20
12260
0
SEQEND
0
POLYLINE
8
0
62
3
66
1
40
1
41
1
0
VERTEX
8
0
10
7929
20
12037
0
VERTEX
8
0
10
7837
20
12037
0
SEQEND
0
POLYLINE
8
0
62
3
66
1
40
1
41
1
0
VERTEX
8
0
10
7929
20
12079
0
VERTEX
8
0
10
7837
20
12079
0
SEQEND
0
POLYLINE
8
0
62
3
66
1
40
1
41
1
0
VERTEX
8
0
10
7929
20
12125
0
VERTEX
8
0
10
7837
20
12125
0
SEQEND
0
POLYLINE
8
0
62
3
66
1
40
1
41
1
0
VERTEX
8
0
10
7929
20
11945
0
VERTEX
8
0
10
7837
20
11945
0
SEQEND
0
POLYLINE
8
0
62
3
66
1
40
1
41
1
0
VERTEX
8
0
10
7929
20
11991
0
VERTEX
8
0
10
7837
20
11991
0
SEQEND
0
POLYLINE
8
0
62
4
66
1
40
1
41
1
0
VERTEX
8
0
10
7837
20
12079
0
VERTEX
8
0
10
7749
20
12079
0
SEQEND
0
POLYLINE
8
0
62
3
66
1
40
1
41
1
0
VERTEX
8
0
10
7929
20
11901
0
VERTEX
8
0
10
7837
20
11901
0
SEQEND
0
POLYLINE
8
0
62
3
66
1
40
1
41
1
0
VERTEX
8
0
10
7929
20
11856
0
VERTEX
8
0
10
7837
20
11856
0
SEQEND
0
POLYLINE
8
0
62
3
66
1
40
1
41
1
0
VERTEX
8
0
10
7929
20
11809
0
VERTEX
8
0
10
7837
20
11809
0
SEQEND
0
POLYLINE
8
0
62
3
66
1
40
1
41
1
0
VERTEX
8
0
10
7929
20
11767
0
VERTEX
8
0
10
7837
20
11767
0
SEQEND
0
POLYLINE
8
0
62
3
66
1
40
1
41
1
0
VERTEX
8
0
10
7929
20
11675
0
VERTEX
8
0
10
7837
20
11675
0
SEQEND
0
POLYLINE
8
0
62
3
66
1
40
1
41
1
0
VERTEX
8
0
10
7929
20
11721
0
VERTEX
8
0
10
7837
20
11721
0
SEQEND
0
POLYLINE
8
0
62
4
66
1
40
1
41
1
0
VERTEX
8
0
10
7837
20
11721
0
VERTEX
8
0
10
7749
20
11721
0
SEQEND
0
POLYLINE
8
0
62
4
66
1
40
1
41
1
0
VERTEX
8
0
10
7837
20
11901
0
VERTEX
8
0
10
7749
20
11901
0
SEQEND
0
POLYLINE
8
0
62
3
66
1
40
1
41
1
0
VERTEX
8
0
10
7929
20
11632
0
VERTEX
8
0
10
7837
20
11632
0
SEQEND
0
POLYLINE
8
0
62
3
66
1
40
1
41
1
0
VERTEX
8
0
10
7929
20
11541
0
VERTEX
8
0
10
7837
20
11541
0
SEQEND
0
POLYLINE
8
0
62
3
66
1
40
1
41
1
0
VERTEX
8
0
10
7929
20
11586
0
VERTEX
8
0
10
7837
20
11586
0
SEQEND
0
POLYLINE
8
0
62
3
66
1
40
1
41
1
0
VERTEX
8
0
10
7929
20
11495
0
VERTEX
8
0
10
7837
20
11495
0
SEQEND
0
POLYLINE
8
0
62
3
66
1
40
1
41
1
0
VERTEX
8
0
10
7929
20
11452
0
VERTEX
8
0
10
7837
20
11452
0
SEQEND
0
POLYLINE
8
0
62
4
66
1
40
1
41
1
0
VERTEX
8
0
10
7837
20
11541
0
VERTEX
8
0
10
7749
20
11541
0
SEQEND
0
POLYLINE
8
0
62
6
66
1
40
1
41
1
0
VERTEX
8
0
10
7658
20
11541
0
VERTEX
8
0
10
7569
20
11541
0
SEQEND
0
POLYLINE
8
0
62
3
66
1
40
1
41
1
0
VERTEX
8
0
10
7929
20
11359
0
VERTEX
8
0
10
7837
20
11359
0
SEQEND
0
POLYLINE
8
0
62
3
66
1
40
1
41
1
0
VERTEX
8
0
10
7929
20
11405
0
VERTEX
8
0
10
7837
20
11405
0
SEQEND
0
POLYLINE
8
0
62
3
66
1
40
1
41
1
0
VERTEX
8
0
10
7929
20
11317
0
VERTEX
8
0
10
7837
20
11317
0
SEQEND
0
POLYLINE
8
0
62
3
66
1
40
1
41
1
0
VERTEX
8
0
10
7929
20
11182
0
VERTEX
8
0
10
7837
20
11182
0
SEQEND
0
POLYLINE
8
0
62
3
66
1
40
1
41
1
0
VERTEX
8
0
10
7929
20
11270
0
VERTEX
8
0
10
7837
20
11270
0
SEQEND
0
POLYLINE
8
0
62
3
66
1
40
1
41
1
0
VERTEX
8
0
10
7929
20
11225
0
VERTEX
8
0
10
7837
20
11225
0
SEQEND
0
POLYLINE
8
0
62
4
66
1
40
1
41
1
0
VERTEX
8
0
10
7837
20
11182
0
VERTEX
8
0
10
7749
20
11182
0
SEQEND
0
POLYLINE
8
0
62
4
66
1
40
1
41
1
0
VERTEX
8
0
10
7837
20
11359
0
VERTEX
8
0
10
7749
20
11359
0
SEQEND
0
POLYLINE
8
0
62
5
66
1
40
1
41
1
0
VERTEX
8
0
10
7749
20
11541
0
VERTEX
8
0
10
7658
20
11541
0
SEQEND
0
POLYLINE
8
0
62
4
66
1
40
1
41
1
0
VERTEX
8
0
10
9066
20
12798
0
VERTEX
8
0
10
8978
20
12798
0
SEQEND
0
POLYLINE
8
0
62
6
66
1
40
1
41
1
0
VERTEX
8
0
10
8890
20
12980
0
VERTEX
8
0
10
8798
20
12980
0
SEQEND
0
POLYLINE
8
0
62
5
66
1
40
1
41
1
0
VERTEX
8
0
10
8978
20
12980
0
VERTEX
8
0
10
8890
20
12980
0
SEQEND
0
POLYLINE
8
0
62
4
66
1
40
1
41
1
0
VERTEX
8
0
10
9066
20
12980
0
VERTEX
8
0
10
8978
20
12980
0
SEQEND
0
POLYLINE
8
0
62
5
66
1
40
1
41
1
0
VERTEX
8
0
10
8978
20
12260
0
VERTEX
8
0
10
8890
20
12260
0
SEQEND
0
POLYLINE
8
0
62
4
66
1
40
1
41
1
0
VERTEX
8
0
10
9066
20
12260
0
VERTEX
8
0
10
8978
20
12260
0
SEQEND
0
POLYLINE
8
0
62
4
66
1
40
1
41
1
0
VERTEX
8
0
10
9066
20
12441
0
VERTEX
8
0
10
8978
20
12441
0
SEQEND
0
POLYLINE
8
0
62
4
66
1
40
1
41
1
0
VERTEX
8
0
10
9066
20
12622
0
VERTEX
8
0
10
8978
20
12622
0
SEQEND
0
POLYLINE
8
0
62
4
66
1
40
1
41
1
0
VERTEX
8
0
10
9066
20
11721
0
VERTEX
8
0
10
8978
20
11721
0
SEQEND
0
POLYLINE
8
0
62
4
66
1
40
1
41
1
0
VERTEX
8
0
10
9066
20
11901
0
VERTEX
8
0
10
8978
20
11901
0
SEQEND
0
POLYLINE
8
0
62
4
66
1
40
1
41
1
0
VERTEX
8
0
10
9066
20
12079
0
VERTEX
8
0
10
8978
20
12079
0
SEQEND
0
POLYLINE
8
0
62
4
66
1
40
1
41
1
0
VERTEX
8
0
10
9066
20
11182
0
VERTEX
8
0
10
8978
20
11182
0
SEQEND
0
POLYLINE
8
0
62
4
66
1
40
1
41
1
0
VERTEX
8
0
10
9066
20
11359
0
VERTEX
8
0
10
8978
20
11359
0
SEQEND
0
POLYLINE
8
0
62
6
66
1
40
1
41
1
0
VERTEX
8
0
10
8890
20
11541
0
VERTEX
8
0
10
8798
20
11541
0
SEQEND
0
POLYLINE
8
0
62
5
66
1
40
1
41
1
0
VERTEX
8
0
10
8978
20
11541
0
VERTEX
8
0
10
8890
20
11541
0
SEQEND
0
POLYLINE
8
0
62
4
66
1
40
1
41
1
0
VERTEX
8
0
10
9066
20
11541
0
VERTEX
8
0
10
8978
20
11541
0
SEQEND
0
POLYLINE
8
0
62
3
66
1
40
1
41
1
0
VERTEX
8
0
10
9157
20
11541
0
VERTEX
8
0
10
9066
20
11541
0
SEQEND
0
POLYLINE
8
0
62
3
66
1
40
1
41
1
0
VERTEX
8
0
10
9157
20
11586
0
VERTEX
8
0
10
9066
20
11586
0
SEQEND
0
POLYLINE
8
0
62
3
66
1
40
1
41
1
0
VERTEX
8
0
10
9157
20
11632
0
VERTEX
8
0
10
9066
20
11632
0
SEQEND
0
POLYLINE
8
0
62
3
66
1
40
1
41
1
0
VERTEX
8
0
10
9157
20
11452
0
VERTEX
8
0
10
9066
20
11452
0
SEQEND
0
POLYLINE
8
0
62
3
66
1
40
1
41
1
0
VERTEX
8
0
10
9157
20
11495
0
VERTEX
8
0
10
9066
20
11495
0
SEQEND
0
POLYLINE
8
0
62
3
66
1
40
1
41
1
0
VERTEX
8
0
10
9157
20
11225
0
VERTEX
8
0
10
9066
20
11225
0
SEQEND
0
POLYLINE
8
0
62
3
66
1
40
1
41
1
0
VERTEX
8
0
10
9157
20
11359
0
VERTEX
8
0
10
9066
20
11359
0
SEQEND
0
POLYLINE
8
0
62
3
66
1
40
1
41
1
0
VERTEX
8
0
10
9157
20
11405
0
VERTEX
8
0
10
9066
20
11405
0
SEQEND
0
POLYLINE
8
0
62
3
66
1
40
1
41
1
0
VERTEX
8
0
10
9157
20
11270
0
VERTEX
8
0
10
9066
20
11270
0
SEQEND
0
POLYLINE
8
0
62
3
66
1
40
1
41
1
0
VERTEX
8
0
10
9157
20
11182
0
VERTEX
8
0
10
9066
20
11182
0
SEQEND
0
POLYLINE
8
0
62
3
66
1
40
1
41
1
0
VERTEX
8
0
10
9157
20
11317
0
VERTEX
8
0
10
9066
20
11317
0
SEQEND
0
POLYLINE
8
0
62
3
66
1
40
1
41
1
0
VERTEX
8
0
10
9157
20
12125
0
VERTEX
8
0
10
9066
20
12125
0
SEQEND
0
POLYLINE
8
0
62
3
66
1
40
1
41
1
0
VERTEX
8
0
10
9157
20
12079
0
VERTEX
8
0
10
9066
20
12079
0
SEQEND
0
POLYLINE
8
0
62
3
66
1
40
1
41
1
0
VERTEX
8
0
10
9157
20
11945
0
VERTEX
8
0
10
9066
20
11945
0
SEQEND
0
POLYLINE
8
0
62
3
66
1
40
1
41
1
0
VERTEX
8
0
10
9157
20
11991
0
VERTEX
8
0
10
9066
20
11991
0
SEQEND
0
POLYLINE
8
0
62
3
66
1
40
1
41
1
0
VERTEX
8
0
10
9157
20
12037
0
VERTEX
8
0
10
9066
20
12037
0
SEQEND
0
POLYLINE
8
0
62
3
66
1
40
1
41
1
0
VERTEX
8
0
10
9157
20
11856
0
VERTEX
8
0
10
9066
20
11856
0
SEQEND
0
POLYLINE
8
0
62
3
66
1
40
1
41
1
0
VERTEX
8
0
10
9157
20
11721
0
VERTEX
8
0
10
9066
20
11721
0
SEQEND
0
POLYLINE
8
0
62
3
66
1
40
1
41
1
0
VERTEX
8
0
10
9157
20
11809
0
VERTEX
8
0
10
9066
20
11809
0
SEQEND
0
POLYLINE
8
0
62
3
66
1
40
1
41
1
0
VERTEX
8
0
10
9157
20
11767
0
VERTEX
8
0
10
9066
20
11767
0
SEQEND
0
POLYLINE
8
0
62
3
66
1
40
1
41
1
0
VERTEX
8
0
10
9157
20
11675
0
VERTEX
8
0
10
9066
20
11675
0
SEQEND
0
POLYLINE
8
0
62
3
66
1
40
1
41
1
0
VERTEX
8
0
10
9157
20
11901
0
VERTEX
8
0
10
9066
20
11901
0
SEQEND
0
POLYLINE
8
0
62
3
66
1
40
1
41
1
0
VERTEX
8
0
10
9157
20
12576
0
VERTEX
8
0
10
9066
20
12576
0
SEQEND
0
POLYLINE
8
0
62
3
66
1
40
1
41
1
0
VERTEX
8
0
10
9157
20
12622
0
VERTEX
8
0
10
9066
20
12622
0
SEQEND
0
POLYLINE
8
0
62
3
66
1
40
1
41
1
0
VERTEX
8
0
10
9157
20
12529
0
VERTEX
8
0
10
9066
20
12529
0
SEQEND
0
POLYLINE
8
0
62
3
66
1
40
1
41
1
0
VERTEX
8
0
10
9157
20
12441
0
VERTEX
8
0
10
9066
20
12441
0
SEQEND
0
POLYLINE
8
0
62
3
66
1
40
1
41
1
0
VERTEX
8
0
10
9157
20
12487
0
VERTEX
8
0
10
9066
20
12487
0
SEQEND
0
POLYLINE
8
0
62
3
66
1
40
1
41
1
0
VERTEX
8
0
10
9157
20
12171
0
VERTEX
8
0
10
9066
20
12171
0
SEQEND
0
POLYLINE
8
0
62
3
66
1
40
1
41
1
0
VERTEX
8
0
10
9157
20
12306
0
VERTEX
8
0
10
9066
20
12306
0
SEQEND
0
POLYLINE
8
0
62
3
66
1
40
1
41
1
0
VERTEX
8
0
10
9157
20
12214
0
VERTEX
8
0
10
9066
20
12214
0
SEQEND
0
POLYLINE
8
0
62
3
66
1
40
1
41
1
0
VERTEX
8
0
10
9157
20
12394
0
VERTEX
8
0
10
9066
20
12394
0
SEQEND
0
POLYLINE
8
0
62
3
66
1
40
1
41
1
0
VERTEX
8
0
10
9157
20
12260
0
VERTEX
8
0
10
9066
20
12260
0
SEQEND
0
POLYLINE
8
0
62
3
66
1
40
1
41
1
0
VERTEX
8
0
10
9157
20
12351
0
VERTEX
8
0
10
9066
20
12351
0
SEQEND
0
POLYLINE
8
0
62
3
66
1
40
1
41
1
0
VERTEX
8
0
10
9157
20
13026
0
VERTEX
8
0
10
9066
20
13026
0
SEQEND
0
POLYLINE
8
0
62
3
66
1
40
1
41
1
0
VERTEX
8
0
10
9157
20
13115
0
VERTEX
8
0
10
9066
20
13115
0
SEQEND
0
POLYLINE
8
0
62
3
66
1
40
1
41
1
0
VERTEX
8
0
10
9157
20
13068
0
VERTEX
8
0
10
9066
20
13068
0
SEQEND
0
POLYLINE
8
0
62
3
66
1
40
1
41
1
0
VERTEX
8
0
10
9157
20
12980
0
VERTEX
8
0
10
9066
20
12980
0
SEQEND
0
POLYLINE
8
0
62
3
66
1
40
1
41
1
0
VERTEX
8
0
10
9157
20
12934
0
VERTEX
8
0
10
9066
20
12934
0
SEQEND
0
POLYLINE
8
0
62
3
66
1
40
1
41
1
0
VERTEX
8
0
10
9157
20
12890
0
VERTEX
8
0
10
9066
20
12890
0
SEQEND
0
POLYLINE
8
0
62
3
66
1
40
1
41
1
0
VERTEX
8
0
10
9157
20
12756
0
VERTEX
8
0
10
9066
20
12756
0
SEQEND
0
POLYLINE
8
0
62
3
66
1
40
1
41
1
0
VERTEX
8
0
10
9157
20
12798
0
VERTEX
8
0
10
9066
20
12798
0
SEQEND
0
POLYLINE
8
0
62
3
66
1
40
1
41
1
0
VERTEX
8
0
10
9157
20
12710
0
VERTEX
8
0
10
9066
20
12710
0
SEQEND
0
POLYLINE
8
0
62
3
66
1
40
1
41
1
0
VERTEX
8
0
10
9157
20
12664
0
VERTEX
8
0
10
9066
20
12664
0
SEQEND
0
POLYLINE
8
0
62
3
66
1
40
1
41
1
0
VERTEX
8
0
10
9157
20
12844
0
VERTEX
8
0
10
9066
20
12844
0
SEQEND
0
POLYLINE
8
0
62
5
66
1
40
1
41
1
0
VERTEX
8
0
10
8978
20
10820
0
VERTEX
8
0
10
8890
20
10820
0
SEQEND
0
POLYLINE
8
0
62
4
66
1
40
1
41
1
0
VERTEX
8
0
10
9066
20
10820
0
VERTEX
8
0
10
8978
20
10820
0
SEQEND
0
POLYLINE
8
0
62
4
66
1
40
1
41
1
0
VERTEX
8
0
10
9066
20
11002
0
VERTEX
8
0
10
8978
20
11002
0
SEQEND
0
POLYLINE
8
0
62
4
66
1
40
1
41
1
0
VERTEX
8
0
10
9066
20
10282
0
VERTEX
8
0
10
8978
20
10282
0
SEQEND
0
POLYLINE
8
0
62
4
66
1
40
1
41
1
0
VERTEX
8
0
10
9066
20
10463
0
VERTEX
8
0
10
8978
20
10463
0
SEQEND
0
POLYLINE
8
0
62
4
66
1
40
1
41
1
0
VERTEX
8
0
10
9066
20
10640
0
VERTEX
8
0
10
8978
20
10640
0
SEQEND
0
POLYLINE
8
0
62
4
66
1
40
1
41
1
0
VERTEX
8
0
10
9066
20
9743
0
VERTEX
8
0
10
8978
20
9743
0
SEQEND
0
POLYLINE
8
0
62
4
66
1
40
1
41
1
0
VERTEX
8
0
10
9066
20
9920
0
VERTEX
8
0
10
8978
20
9920
0
SEQEND
0
POLYLINE
8
0
62
6
66
1
40
1
41
1
0
VERTEX
8
0
10
8890
20
10101
0
VERTEX
8
0
10
8798
20
10101
0
SEQEND
0
POLYLINE
8
0
62
5
66
1
40
1
41
1
0
VERTEX
8
0
10
8978
20
10101
0
VERTEX
8
0
10
8890
20
10101
0
SEQEND
0
POLYLINE
8
0
62
4
66
1
40
1
41
1
0
VERTEX
8
0
10
9066
20
10101
0
VERTEX
8
0
10
8978
20
10101
0
SEQEND
0
POLYLINE
8
0
62
4
66
1
40
1
41
1
0
VERTEX
8
0
10
9066
20
9204
0
VERTEX
8
0
10
8978
20
9204
0
SEQEND
0
POLYLINE
8
0
62
5
66
1
40
1
41
1
0
VERTEX
8
0
10
8978
20
9381
0
VERTEX
8
0
10
8890
20
9381
0
SEQEND
0
POLYLINE
8
0
62
4
66
1
40
1
41
1
0
VERTEX
8
0
10
9066
20
9381
0
VERTEX
8
0
10
8978
20
9381
0
SEQEND
0
POLYLINE
8
0
62
4
66
1
40
1
41
1
0
VERTEX
8
0
10
9066
20
9563
0
VERTEX
8
0
10
8978
20
9563
0
SEQEND
0
POLYLINE
8
0
62
3
66
1
40
1
41
1
0
VERTEX
8
0
10
9157
20
9651
0
VERTEX
8
0
10
9066
20
9651
0
SEQEND
0
POLYLINE
8
0
62
3
66
1
40
1
41
1
0
VERTEX
8
0
10
9157
20
9474
0
VERTEX
8
0
10
9066
20
9474
0
SEQEND
0
POLYLINE
8
0
62
3
66
1
40
1
41
1
0
VERTEX
8
0
10
9157
20
9517
0
VERTEX
8
0
10
9066
20
9517
0
SEQEND
0
POLYLINE
8
0
62
3
66
1
40
1
41
1
0
VERTEX
8
0
10
9157
20
9608
0
VERTEX
8
0
10
9066
20
9608
0
SEQEND
0
POLYLINE
8
0
62
3
66
1
40
1
41
1
0
VERTEX
8
0
10
9157
20
9563
0
VERTEX
8
0
10
9066
20
9563
0
SEQEND
0
POLYLINE
8
0
62
3
66
1
40
1
41
1
0
VERTEX
8
0
10
9157
20
9427
0
VERTEX
8
0
10
9066
20
9427
0
SEQEND
0
POLYLINE
8
0
62
3
66
1
40
1
41
1
0
VERTEX
8
0
10
9157
20
9292
0
VERTEX
8
0
10
9066
20
9292
0
SEQEND
0
POLYLINE
8
0
62
3
66
1
40
1
41
1
0
VERTEX
8
0
10
9157
20
9339
0
VERTEX
8
0
10
9066
20
9339
0
SEQEND
0
POLYLINE
8
0
62
3
66
1
40
1
41
1
0
VERTEX
8
0
10
9157
20
9381
0
VERTEX
8
0
10
9066
20
9381
0
SEQEND
0
POLYLINE
8
0
62
3
66
1
40
1
41
1
0
VERTEX
8
0
10
9157
20
9204
0
VERTEX
8
0
10
9066
20
9204
0
SEQEND
0
POLYLINE
8
0
62
3
66
1
40
1
41
1
0
VERTEX
8
0
10
9157
20
9247
0
VERTEX
8
0
10
9066
20
9247
0
SEQEND
0
POLYLINE
8
0
62
3
66
1
40
1
41
1
0
VERTEX
8
0
10
9157
20
10101
0
VERTEX
8
0
10
9066
20
10101
0
SEQEND
0
POLYLINE
8
0
62
3
66
1
40
1
41
1
0
VERTEX
8
0
10
9157
20
10147
0
VERTEX
8
0
10
9066
20
10147
0
SEQEND
0
POLYLINE
8
0
62
3
66
1
40
1
41
1
0
VERTEX
8
0
10
9157
20
10059
0
VERTEX
8
0
10
9066
20
10059
0
SEQEND
0
POLYLINE
8
0
62
3
66
1
40
1
41
1
0
VERTEX
8
0
10
9157
20
10013
0
VERTEX
8
0
10
9066
20
10013
0
SEQEND
0
POLYLINE
8
0
62
3
66
1
40
1
41
1
0
VERTEX
8
0
10
9157
20
9967
0
VERTEX
8
0
10
9066
20
9967
0
SEQEND
0
POLYLINE
8
0
62
3
66
1
40
1
41
1
0
VERTEX
8
0
10
9157
20
9831
0
VERTEX
8
0
10
9066
20
9831
0
SEQEND
0
POLYLINE
8
0
62
3
66
1
40
1
41
1
0
VERTEX
8
0
10
9157
20
9878
0
VERTEX
8
0
10
9066
20
9878
0
SEQEND
0
POLYLINE
8
0
62
3
66
1
40
1
41
1
0
VERTEX
8
0
10
9157
20
9920
0
VERTEX
8
0
10
9066
20
9920
0
SEQEND
0
POLYLINE
8
0
62
3
66
1
40
1
41
1
0
VERTEX
8
0
10
9157
20
9697
0
VERTEX
8
0
10
9066
20
9697
0
SEQEND
0
POLYLINE
8
0
62
3
66
1
40
1
41
1
0
VERTEX
8
0
10
9157
20
9743
0
VERTEX
8
0
10
9066
20
9743
0
SEQEND
0
POLYLINE
8
0
62
3
66
1
40
1
41
1
0
VERTEX
8
0
10
9157
20
9785
0
VERTEX
8
0
10
9066
20
9785
0
SEQEND
0
POLYLINE
8
0
62
3
66
1
40
1
41
1
0
VERTEX
8
0
10
9157
20
10551
0
VERTEX
8
0
10
9066
20
10551
0
SEQEND
0
POLYLINE
8
0
62
3
66
1
40
1
41
1
0
VERTEX
8
0
10
9157
20
10598
0
VERTEX
8
0
10
9066
20
10598
0
SEQEND
0
POLYLINE
8
0
62
3
66
1
40
1
41
1
0
VERTEX
8
0
10
9157
20
10640
0
VERTEX
8
0
10
9066
20
10640
0
SEQEND
0
POLYLINE
8
0
62
3
66
1
40
1
41
1
0
VERTEX
8
0
10
9157
20
10505
0
VERTEX
8
0
10
9066
20
10505
0
SEQEND
0
POLYLINE
8
0
62
3
66
1
40
1
41
1
0
VERTEX
8
0
10
9157
20
10463
0
VERTEX
8
0
10
9066
20
10463
0
SEQEND
0
POLYLINE
8
0
62
3
66
1
40
1
41
1
0
VERTEX
8
0
10
9157
20
10416
0
VERTEX
8
0
10
9066
20
10416
0
SEQEND
0
POLYLINE
8
0
62
3
66
1
40
1
41
1
0
VERTEX
8
0
10
9157
20
10328
0
VERTEX
8
0
10
9066
20
10328
0
SEQEND
0
POLYLINE
8
0
62
3
66
1
40
1
41
1
0
VERTEX
8
0
10
9157
20
10282
0
VERTEX
8
0
10
9066
20
10282
0
SEQEND
0
POLYLINE
8
0
62
3
66
1
40
1
41
1
0
VERTEX
8
0
10
9157
20
10370
0
VERTEX
8
0
10
9066
20
10370
0
SEQEND
0
POLYLINE
8
0
62
3
66
1
40
1
41
1
0
VERTEX
8
0
10
9157
20
10193
0
VERTEX
8
0
10
9066
20
10193
0
SEQEND
0
POLYLINE
8
0
62
3
66
1
40
1
41
1
0
VERTEX
8
0
10
9157
20
10236
0
VERTEX
8
0
10
9066
20
10236
0
SEQEND
0
POLYLINE
8
0
62
3
66
1
40
1
41
1
0
VERTEX
8
0
10
9157
20
11136
0
VERTEX
8
0
10
9066
20
11136
0
SEQEND
0
POLYLINE
8
0
62
3
66
1
40
1
41
1
0
VERTEX
8
0
10
9157
20
11090
0
VERTEX
8
0
10
9066
20
11090
0
SEQEND
0
POLYLINE
8
0
62
3
66
1
40
1
41
1
0
VERTEX
8
0
10
9157
20
10956
0
VERTEX
8
0
10
9066
20
10956
0
SEQEND
0
POLYLINE
8
0
62
3
66
1
40
1
41
1
0
VERTEX
8
0
10
9157
20
11002
0
VERTEX
8
0
10
9066
20
11002
0
SEQEND
0
POLYLINE
8
0
62
3
66
1
40
1
41
1
0
VERTEX
8
0
10
9157
20
11048
0
VERTEX
8
0
10
9066
20
11048
0
SEQEND
0
POLYLINE
8
0
62
3
66
1
40
1
41
1
0
VERTEX
8
0
10
9157
20
10820
0
VERTEX
8
0
10
9066
20
10820
0
SEQEND
0
POLYLINE
8
0
62
3
66
1
40
1
41
1
0
VERTEX
8
0
10
9157
20
10866
0
VERTEX
8
0
10
9066
20
10866
0
SEQEND
0
POLYLINE
8
0
62
3
66
1
40
1
41
1
0
VERTEX
8
0
10
9157
20
10778
0
VERTEX
8
0
10
9066
20
10778
0
SEQEND
0
POLYLINE
8
0
62
3
66
1
40
1
41
1
0
VERTEX
8
0
10
9157
20
10732
0
VERTEX
8
0
10
9066
20
10732
0
SEQEND
0
POLYLINE
8
0
62
3
66
1
40
1
41
1
0
VERTEX
8
0
10
9157
20
10686
0
VERTEX
8
0
10
9066
20
10686
0
SEQEND
0
POLYLINE
8
0
62
3
66
1
40
1
41
1
0
VERTEX
8
0
10
9157
20
10912
0
VERTEX
8
0
10
9066
20
10912
0
SEQEND
0
POLYLINE
8
0
62
3
66
1
40
1
41
1
0
VERTEX
8
0
10
7929
20
11090
0
VERTEX
8
0
10
7837
20
11090
0
SEQEND
0
POLYLINE
8
0
62
3
66
1
40
1
41
1
0
VERTEX
8
0
10
7929
20
11136
0
VERTEX
8
0
10
7837
20
11136
0
SEQEND
0
POLYLINE
8
0
62
3
66
1
40
1
41
1
0
VERTEX
8
0
10
7929
20
11048
0
VERTEX
8
0
10
7837
20
11048
0
SEQEND
0
POLYLINE
8
0
62
3
66
1
40
1
41
1
0
VERTEX
8
0
10
7929
20
10956
0
VERTEX
8
0
10
7837
20
10956
0
SEQEND
0
POLYLINE
8
0
62
3
66
1
40
1
41
1
0
VERTEX
8
0
10
7929
20
11002
0
VERTEX
8
0
10
7837
20
11002
0
SEQEND
0
POLYLINE
8
0
62
4
66
1
40
1
41
1
0
VERTEX
8
0
10
7837
20
11002
0
VERTEX
8
0
10
7749
20
11002
0
SEQEND
0
POLYLINE
8
0
62
3
66
1
40
1
41
1
0
VERTEX
8
0
10
7929
20
10912
0
VERTEX
8
0
10
7837
20
10912
0
SEQEND
0
POLYLINE
8
0
62
3
66
1
40
1
41
1
0
VERTEX
8
0
10
7929
20
10820
0
VERTEX
8
0
10
7837
20
10820
0
SEQEND
0
POLYLINE
8
0
62
3
66
1
40
1
41
1
0
VERTEX
8
0
10
7929
20
10866
0
VERTEX
8
0
10
7837
20
10866
0
SEQEND
0
POLYLINE
8
0
62
3
66
1
40
1
41
1
0
VERTEX
8
0
10
7929
20
10686
0
VERTEX
8
0
10
7837
20
10686
0
SEQEND
0
POLYLINE
8
0
62
3
66
1
40
1
41
1
0
VERTEX
8
0
10
7929
20
10732
0
VERTEX
8
0
10
7837
20
10732
0
SEQEND
0
POLYLINE
8
0
62
3
66
1
40
1
41
1
0
VERTEX
8
0
10
7929
20
10778
0
VERTEX
8
0
10
7837
20
10778
0
SEQEND
0
POLYLINE
8
0
62
4
66
1
40
1
41
1
0
VERTEX
8
0
10
7837
20
10820
0
VERTEX
8
0
10
7749
20
10820
0
SEQEND
0
POLYLINE
8
0
62
5
66
1
40
1
41
1
0
VERTEX
8
0
10
7749
20
10820
0
VERTEX
8
0
10
7658
20
10820
0
SEQEND
0
POLYLINE
8
0
62
3
66
1
40
1
41
1
0
VERTEX
8
0
10
7929
20
10598
0
VERTEX
8
0
10
7837
20
10598
0
SEQEND
0
POLYLINE
8
0
62
3
66
1
40
1
41
1
0
VERTEX
8
0
10
7929
20
10551
0
VERTEX
8
0
10
7837
20
10551
0
SEQEND
0
POLYLINE
8
0
62
3
66
1
40
1
41
1
0
VERTEX
8
0
10
7929
20
10640
0
VERTEX
8
0
10
7837
20
10640
0
SEQEND
0
POLYLINE
8
0
62
3
66
1
40
1
41
1
0
VERTEX
8
0
10
7929
20
10463
0
VERTEX
8
0
10
7837
20
10463
0
SEQEND
0
POLYLINE
8
0
62
3
66
1
40
1
41
1
0
VERTEX
8
0
10
7929
20
10505
0
VERTEX
8
0
10
7837
20
10505
0
SEQEND
0
POLYLINE
8
0
62
4
66
1
40
1
41
1
0
VERTEX
8
0
10
7837
20
10463
0
VERTEX
8
0
10
7749
20
10463
0
SEQEND
0
POLYLINE
8
0
62
4
66
1
40
1
41
1
0
VERTEX
8
0
10
7837
20
10640
0
VERTEX
8
0
10
7749
20
10640
0
SEQEND
0
POLYLINE
8
0
62
3
66
1
40
1
41
1
0
VERTEX
8
0
10
7929
20
10416
0
VERTEX
8
0
10
7837
20
10416
0
SEQEND
0
POLYLINE
8
0
62
3
66
1
40
1
41
1
0
VERTEX
8
0
10
7929
20
10370
0
VERTEX
8
0
10
7837
20
10370
0
SEQEND
0
POLYLINE
8
0
62
3
66
1
40
1
41
1
0
VERTEX
8
0
10
7929
20
10328
0
VERTEX
8
0
10
7837
20
10328
0
SEQEND
0
POLYLINE
8
0
62
3
66
1
40
1
41
1
0
VERTEX
8
0
10
7929
20
10236
0
VERTEX
8
0
10
7837
20
10236
0
SEQEND
0
POLYLINE
8
0
62
3
66
1
40
1
41
1
0
VERTEX
8
0
10
7929
20
10193
0
VERTEX
8
0
10
7837
20
10193
0
SEQEND
0
POLYLINE
8
0
62
3
66
1
40
1
41
1
0
VERTEX
8
0
10
7929
20
10282
0
VERTEX
8
0
10
7837
20
10282
0
SEQEND
0
POLYLINE
8
0
62
4
66
1
40
1
41
1
0
VERTEX
8
0
10
7837
20
10282
0
VERTEX
8
0
10
7749
20
10282
0
SEQEND
0
POLYLINE
8
0
62
3
66
1
40
1
41
1
0
VERTEX
8
0
10
7929
20
10147
0
VERTEX
8
0
10
7837
20
10147
0
SEQEND
0
POLYLINE
8
0
62
3
66
1
40
1
41
1
0
VERTEX
8
0
10
7929
20
10059
0
VERTEX
8
0
10
7837
20
10059
0
SEQEND
0
POLYLINE
8
0
62
3
66
1
40
1
41
1
0
VERTEX
8
0
10
7929
20
10101
0
VERTEX
8
0
10
7837
20
10101
0
SEQEND
0
POLYLINE
8
0
62
3
66
1
40
1
41
1
0
VERTEX
8
0
10
7929
20
10013
0
VERTEX
8
0
10
7837
20
10013
0
SEQEND
0
POLYLINE
8
0
62
3
66
1
40
1
41
1
0
VERTEX
8
0
10
7929
20
9967
0
VERTEX
8
0
10
7837
20
9967
0
SEQEND
0
POLYLINE
8
0
62
4
66
1
40
1
41
1
0
VERTEX
8
0
10
7837
20
10101
0
VERTEX
8
0
10
7749
20
10101
0
SEQEND
0
POLYLINE
8
0
62
6
66
1
40
1
41
1
0
VERTEX
8
0
10
7658
20
10101
0
VERTEX
8
0
10
7569
20
10101
0
SEQEND
0
POLYLINE
8
0
62
3
66
1
40
1
41
1
0
VERTEX
8
0
10
7929
20
9831
0
VERTEX
8
0
10
7837
20
9831
0
SEQEND
0
POLYLINE
8
0
62
3
66
1
40
1
41
1
0
VERTEX
8
0
10
7929
20
9878
0
VERTEX
8
0
10
7837
20
9878
0
SEQEND
0
POLYLINE
8
0
62
3
66
1
40
1
41
1
0
VERTEX
8
0
10
7929
20
9920
0
VERTEX
8
0
10
7837
20
9920
0
SEQEND
0
POLYLINE
8
0
62
3
66
1
40
1
41
1
0
VERTEX
8
0
10
7929
20
9697
0
VERTEX
8
0
10
7837
20
9697
0
SEQEND
0
POLYLINE
8
0
62
3
66
1
40
1
41
1
0
VERTEX
8
0
10
7929
20
9743
0
VERTEX
8
0
10
7837
20
9743
0
SEQEND
0
POLYLINE
8
0
62
3
66
1
40
1
41
1
0
VERTEX
8
0
10
7929
20
9785
0
VERTEX
8
0
10
7837
20
9785
0
SEQEND
0
POLYLINE
8
0
62
4
66
1
40
1
41
1
0
VERTEX
8
0
10
7837
20
9743
0
VERTEX
8
0
10
7749
20
9743
0
SEQEND
0
POLYLINE
8
0
62
4
66
1
40
1
41
1
0
VERTEX
8
0
10
7837
20
9920
0
VERTEX
8
0
10
7749
20
9920
0
SEQEND
0
POLYLINE
8
0
62
5
66
1
40
1
41
1
0
VERTEX
8
0
10
7749
20
10101
0
VERTEX
8
0
10
7658
20
10101
0
SEQEND
0
POLYLINE
8
0
62
3
66
1
40
1
41
1
0
VERTEX
8
0
10
7929
20
9563
0
VERTEX
8
0
10
7837
20
9563
0
SEQEND
0
POLYLINE
8
0
62
3
66
1
40
1
41
1
0
VERTEX
8
0
10
7929
20
9651
0
VERTEX
8
0
10
7837
20
9651
0
SEQEND
0
POLYLINE
8
0
62
3
66
1
40
1
41
1
0
VERTEX
8
0
10
7929
20
9608
0
VERTEX
8
0
10
7837
20
9608
0
SEQEND
0
POLYLINE
8
0
62
3
66
1
40
1
41
1
0
VERTEX
8
0
10
7929
20
9474
0
VERTEX
8
0
10
7837
20
9474
0
SEQEND
0
POLYLINE
8
0
62
3
66
1
40
1
41
1
0
VERTEX
8
0
10
7929
20
9427
0
VERTEX
8
0
10
7837
20
9427
0
SEQEND
0
POLYLINE
8
0
62
3
66
1
40
1
41
1
0
VERTEX
8
0
10
7929
20
9517
0
VERTEX
8
0
10
7837
20
9517
0
SEQEND
0
POLYLINE
8
0
62
4
66
1
40
1
41
1
0
VERTEX
8
0
10
7837
20
9563
0
VERTEX
8
0
10
7749
20
9563
0
SEQEND
0
POLYLINE
8
0
62
3
66
1
40
1
41
1
0
VERTEX
8
0
10
7929
20
9381
0
VERTEX
8
0
10
7837
20
9381
0
SEQEND
0
POLYLINE
8
0
62
3
66
1
40
1
41
1
0
VERTEX
8
0
10
7929
20
9339
0
VERTEX
8
0
10
7837
20
9339
0
SEQEND
0
POLYLINE
8
0
62
3
66
1
40
1
41
1
0
VERTEX
8
0
10
7929
20
9204
0
VERTEX
8
0
10
7837
20
9204
0
SEQEND
0
POLYLINE
8
0
62
3
66
1
40
1
41
1
0
VERTEX
8
0
10
7929
20
9292
0
VERTEX
8
0
10
7837
20
9292
0
SEQEND
0
POLYLINE
8
0
62
3
66
1
40
1
41
1
0
VERTEX
8
0
10
7929
20
9247
0
VERTEX
8
0
10
7837
20
9247
0
SEQEND
0
POLYLINE
8
0
62
4
66
1
40
1
41
1
0
VERTEX
8
0
10
7837
20
9204
0
VERTEX
8
0
10
7749
20
9204
0
SEQEND
0
POLYLINE
8
0
62
4
66
1
40
1
41
1
0
VERTEX
8
0
10
7837
20
9381
0
VERTEX
8
0
10
7749
20
9381
0
SEQEND
0
POLYLINE
8
0
62
5
66
1
40
1
41
1
0
VERTEX
8
0
10
7749
20
9381
0
VERTEX
8
0
10
7658
20
9381
0
SEQEND
0
POLYLINE
8
0
62
3
66
1
40
1
41
1
0
VERTEX
8
0
10
7929
20
9066
0
VERTEX
8
0
10
7837
20
9066
0
SEQEND
0
POLYLINE
8
0
62
3
66
1
40
1
41
1
0
VERTEX
8
0
10
7929
20
9158
0
VERTEX
8
0
10
7837
20
9158
0
SEQEND
0
POLYLINE
8
0
62
3
66
1
40
1
41
1
0
VERTEX
8
0
10
7929
20
9112
0
VERTEX
8
0
10
7837
20
9112
0
SEQEND
0
POLYLINE
8
0
62
3
66
1
40
1
41
1
0
VERTEX
8
0
10
7929
20
8978
0
VERTEX
8
0
10
7837
20
8978
0
SEQEND
0
POLYLINE
8
0
62
3
66
1
40
1
41
1
0
VERTEX
8
0
10
7929
20
8931
0
VERTEX
8
0
10
7837
20
8931
0
SEQEND
0
POLYLINE
8
0
62
3
66
1
40
1
41
1
0
VERTEX
8
0
10
7929
20
9024
0
VERTEX
8
0
10
7837
20
9024
0
SEQEND
0
POLYLINE
8
0
62
4
66
1
40
1
41
1
0
VERTEX
8
0
10
7837
20
9024
0
VERTEX
8
0
10
7749
20
9024
0
SEQEND
0
POLYLINE
8
0
62
3
66
1
40
1
41
1
0
VERTEX
8
0
10
7929
20
8888
0
VERTEX
8
0
10
7837
20
8888
0
SEQEND
0
POLYLINE
8
0
62
3
66
1
40
1
41
1
0
VERTEX
8
0
10
7929
20
8842
0
VERTEX
8
0
10
7837
20
8842
0
SEQEND
0
POLYLINE
8
0
62
3
66
1
40
1
41
1
0
VERTEX
8
0
10
7929
20
8708
0
VERTEX
8
0
10
7837
20
8708
0
SEQEND
0
POLYLINE
8
0
62
3
66
1
40
1
41
1
0
VERTEX
8
0
10
7929
20
8797
0
VERTEX
8
0
10
7837
20
8797
0
SEQEND
0
POLYLINE
8
0
62
3
66
1
40
1
41
1
0
VERTEX
8
0
10
7929
20
8754
0
VERTEX
8
0
10
7837
20
8754
0
SEQEND
0
POLYLINE
8
0
62
4
66
1
40
1
41
1
0
VERTEX
8
0
10
7837
20
8842
0
VERTEX
8
0
10
7749
20
8842
0
SEQEND
0
POLYLINE
8
0
62
3
66
1
40
1
41
1
0
VERTEX
8
0
10
7929
20
8573
0
VERTEX
8
0
10
7837
20
8573
0
SEQEND
0
POLYLINE
8
0
62
3
66
1
40
1
41
1
0
VERTEX
8
0
10
7929
20
8620
0
VERTEX
8
0
10
7837
20
8620
0
SEQEND
0
POLYLINE
8
0
62
3
66
1
40
1
41
1
0
VERTEX
8
0
10
7929
20
8662
0
VERTEX
8
0
10
7837
20
8662
0
SEQEND
0
POLYLINE
8
0
62
3
66
1
40
1
41
1
0
VERTEX
8
0
10
7929
20
8438
0
VERTEX
8
0
10
7837
20
8438
0
SEQEND
0
POLYLINE
8
0
62
3
66
1
40
1
41
1
0
VERTEX
8
0
10
7929
20
8485
0
VERTEX
8
0
10
7837
20
8485
0
SEQEND
0
POLYLINE
8
0
62
3
66
1
40
1
41
1
0
VERTEX
8
0
10
7929
20
8527
0
VERTEX
8
0
10
7837
20
8527
0
SEQEND
0
POLYLINE
8
0
62
4
66
1
40
1
41
1
0
VERTEX
8
0
10
7837
20
8485
0
VERTEX
8
0
10
7749
20
8485
0
SEQEND
0
POLYLINE
8
0
62
4
66
1
40
1
41
1
0
VERTEX
8
0
10
7837
20
8662
0
VERTEX
8
0
10
7749
20
8662
0
SEQEND
0
POLYLINE
8
0
62
6
66
1
40
1
41
1
0
VERTEX
8
0
10
7658
20
8662
0
VERTEX
8
0
10
7569
20
8662
0
SEQEND
0
POLYLINE
8
0
62
3
66
1
40
1
41
1
0
VERTEX
8
0
10
7929
20
8392
0
VERTEX
8
0
10
7837
20
8392
0
SEQEND
0
POLYLINE
8
0
62
3
66
1
40
1
41
1
0
VERTEX
8
0
10
7929
20
8346
0
VERTEX
8
0
10
7837
20
8346
0
SEQEND
0
POLYLINE
8
0
62
3
66
1
40
1
41
1
0
VERTEX
8
0
10
7929
20
8258
0
VERTEX
8
0
10
7837
20
8258
0
SEQEND
0
POLYLINE
8
0
62
3
66
1
40
1
41
1
0
VERTEX
8
0
10
7929
20
8211
0
VERTEX
8
0
10
7837
20
8211
0
SEQEND
0
POLYLINE
8
0
62
3
66
1
40
1
41
1
0
VERTEX
8
0
10
7929
20
8304
0
VERTEX
8
0
10
7837
20
8304
0
SEQEND
0
POLYLINE
8
0
62
4
66
1
40
1
41
1
0
VERTEX
8
0
10
7837
20
8304
0
VERTEX
8
0
10
7749
20
8304
0
SEQEND
0
POLYLINE
8
0
62
5
66
1
40
1
41
1
0
VERTEX
8
0
10
7749
20
8662
0
VERTEX
8
0
10
7658
20
8662
0
SEQEND
0
POLYLINE
8
0
62
3
66
1
40
1
41
1
0
VERTEX
8
0
10
7929
20
8077
0
VERTEX
8
0
10
7837
20
8077
0
SEQEND
0
POLYLINE
8
0
62
3
66
1
40
1
41
1
0
VERTEX
8
0
10
7929
20
8169
0
VERTEX
8
0
10
7837
20
8169
0
SEQEND
0
POLYLINE
8
0
62
3
66
1
40
1
41
1
0
VERTEX
8
0
10
7929
20
8123
0
VERTEX
8
0
10
7837
20
8123
0
SEQEND
0
POLYLINE
8
0
62
3
66
1
40
1
41
1
0
VERTEX
8
0
10
7929
20
8035
0
VERTEX
8
0
10
7837
20
8035
0
SEQEND
0
POLYLINE
8
0
62
3
66
1
40
1
41
1
0
VERTEX
8
0
10
7929
20
7989
0
VERTEX
8
0
10
7837
20
7989
0
SEQEND
0
POLYLINE
8
0
62
3
66
1
40
1
41
1
0
VERTEX
8
0
10
7929
20
7942
0
VERTEX
8
0
10
7837
20
7942
0
SEQEND
0
POLYLINE
8
0
62
4
66
1
40
1
41
1
0
VERTEX
8
0
10
7837
20
7942
0
VERTEX
8
0
10
7749
20
7942
0
SEQEND
0
POLYLINE
8
0
62
4
66
1
40
1
41
1
0
VERTEX
8
0
10
7837
20
8123
0
VERTEX
8
0
10
7749
20
8123
0
SEQEND
0
POLYLINE
8
0
62
3
66
1
40
1
41
1
0
VERTEX
8
0
10
7929
20
7900
0
VERTEX
8
0
10
7837
20
7900
0
SEQEND
0
POLYLINE
8
0
62
3
66
1
40
1
41
1
0
VERTEX
8
0
10
7929
20
7853
0
VERTEX
8
0
10
7837
20
7853
0
SEQEND
0
POLYLINE
8
0
62
3
66
1
40
1
41
1
0
VERTEX
8
0
10
7929
20
7807
0
VERTEX
8
0
10
7837
20
7807
0
SEQEND
0
POLYLINE
8
0
62
3
66
1
40
1
41
1
0
VERTEX
8
0
10
7929
20
7719
0
VERTEX
8
0
10
7837
20
7719
0
SEQEND
0
POLYLINE
8
0
62
3
66
1
40
1
41
1
0
VERTEX
8
0
10
7929
20
7765
0
VERTEX
8
0
10
7837
20
7765
0
SEQEND
0
POLYLINE
8
0
62
4
66
1
40
1
41
1
0
VERTEX
8
0
10
7837
20
7765
0
VERTEX
8
0
10
7749
20
7765
0
SEQEND
0
POLYLINE
8
0
62
5
66
1
40
1
41
1
0
VERTEX
8
0
10
7749
20
7942
0
VERTEX
8
0
10
7658
20
7942
0
SEQEND
0
POLYLINE
8
0
62
3
66
1
40
1
41
1
0
VERTEX
8
0
10
7929
20
7585
0
VERTEX
8
0
10
7837
20
7585
0
SEQEND
0
POLYLINE
8
0
62
3
66
1
40
1
41
1
0
VERTEX
8
0
10
7929
20
7630
0
VERTEX
8
0
10
7837
20
7630
0
SEQEND
0
POLYLINE
8
0
62
3
66
1
40
1
41
1
0
VERTEX
8
0
10
7929
20
7673
0
VERTEX
8
0
10
7837
20
7673
0
SEQEND
0
POLYLINE
8
0
62
3
66
1
40
1
41
1
0
VERTEX
8
0
10
7929
20
7539
0
VERTEX
8
0
10
7837
20
7539
0
SEQEND
0
POLYLINE
8
0
62
3
66
1
40
1
41
1
0
VERTEX
8
0
10
7929
20
7492
0
VERTEX
8
0
10
7837
20
7492
0
SEQEND
0
POLYLINE
8
0
62
3
66
1
40
1
41
1
0
VERTEX
8
0
10
7929
20
7449
0
VERTEX
8
0
10
7837
20
7449
0
SEQEND
0
POLYLINE
8
0
62
4
66
1
40
1
41
1
0
VERTEX
8
0
10
7837
20
7585
0
VERTEX
8
0
10
7749
20
7585
0
SEQEND
0
POLYLINE
8
0
62
6
66
1
40
1
41
1
0
VERTEX
8
0
10
7658
20
7223
0
VERTEX
8
0
10
7569
20
7223
0
SEQEND
0
POLYLINE
8
0
62
3
66
1
40
1
41
1
0
VERTEX
8
0
10
7929
20
7403
0
VERTEX
8
0
10
7837
20
7403
0
SEQEND
0
POLYLINE
8
0
62
3
66
1
40
1
41
1
0
VERTEX
8
0
10
7929
20
7357
0
VERTEX
8
0
10
7837
20
7357
0
SEQEND
0
POLYLINE
8
0
62
3
66
1
40
1
41
1
0
VERTEX
8
0
10
7929
20
7268
0
VERTEX
8
0
10
7837
20
7268
0
SEQEND
0
POLYLINE
8
0
62
3
66
1
40
1
41
1
0
VERTEX
8
0
10
7929
20
7314
0
VERTEX
8
0
10
7837
20
7314
0
SEQEND
0
POLYLINE
8
0
62
3
66
1
40
1
41
1
0
VERTEX
8
0
10
7929
20
7223
0
VERTEX
8
0
10
7837
20
7223
0
SEQEND
0
POLYLINE
8
0
62
4
66
1
40
1
41
1
0
VERTEX
8
0
10
7837
20
7403
0
VERTEX
8
0
10
7749
20
7403
0
SEQEND
0
POLYLINE
8
0
62
4
66
1
40
1
41
1
0
VERTEX
8
0
10
7837
20
7223
0
VERTEX
8
0
10
7749
20
7223
0
SEQEND
0
POLYLINE
8
0
62
5
66
1
40
1
41
1
0
VERTEX
8
0
10
7749
20
7223
0
VERTEX
8
0
10
7658
20
7223
0
SEQEND
0
POLYLINE
8
0
62
4
66
1
40
1
41
1
0
VERTEX
8
0
10
9066
20
8842
0
VERTEX
8
0
10
8978
20
8842
0
SEQEND
0
POLYLINE
8
0
62
4
66
1
40
1
41
1
0
VERTEX
8
0
10
9066
20
9024
0
VERTEX
8
0
10
8978
20
9024
0
SEQEND
0
POLYLINE
8
0
62
4
66
1
40
1
41
1
0
VERTEX
8
0
10
9066
20
8304
0
VERTEX
8
0
10
8978
20
8304
0
SEQEND
0
POLYLINE
8
0
62
4
66
1
40
1
41
1
0
VERTEX
8
0
10
9066
20
8485
0
VERTEX
8
0
10
8978
20
8485
0
SEQEND
0
POLYLINE
8
0
62
6
66
1
40
1
41
1
0
VERTEX
8
0
10
8890
20
8662
0
VERTEX
8
0
10
8798
20
8662
0
SEQEND
0
POLYLINE
8
0
62
5
66
1
40
1
41
1
0
VERTEX
8
0
10
8978
20
8662
0
VERTEX
8
0
10
8890
20
8662
0
SEQEND
0
POLYLINE
8
0
62
4
66
1
40
1
41
1
0
VERTEX
8
0
10
9066
20
8662
0
VERTEX
8
0
10
8978
20
8662
0
SEQEND
0
POLYLINE
8
0
62
4
66
1
40
1
41
1
0
VERTEX
8
0
10
9066
20
7765
0
VERTEX
8
0
10
8978
20
7765
0
SEQEND
0
POLYLINE
8
0
62
5
66
1
40
1
41
1
0
VERTEX
8
0
10
8978
20
7942
0
VERTEX
8
0
10
8890
20
7942
0
SEQEND
0
POLYLINE
8
0
62
4
66
1
40
1
41
1
0
VERTEX
8
0
10
9066
20
7942
0
VERTEX
8
0
10
8978
20
7942
0
SEQEND
0
POLYLINE
8
0
62
4
66
1
40
1
41
1
0
VERTEX
8
0
10
9066
20
8123
0
VERTEX
8
0
10
8978
20
8123
0
SEQEND
0
POLYLINE
8
0
62
6
66
1
40
1
41
1
0
VERTEX
8
0
10
8890
20
7223
0
VERTEX
8
0
10
8798
20
7223
0
SEQEND
0
POLYLINE
8
0
62
5
66
1
40
1
41
1
0
VERTEX
8
0
10
8978
20
7223
0
VERTEX
8
0
10
8890
20
7223
0
SEQEND
0
POLYLINE
8
0
62
4
66
1
40
1
41
1
0
VERTEX
8
0
10
9066
20
7223
0
VERTEX
8
0
10
8978
20
7223
0
SEQEND
0
POLYLINE
8
0
62
4
66
1
40
1
41
1
0
VERTEX
8
0
10
9066
20
7403
0
VERTEX
8
0
10
8978
20
7403
0
SEQEND
0
POLYLINE
8
0
62
4
66
1
40
1
41
1
0
VERTEX
8
0
10
9066
20
7585
0
VERTEX
8
0
10
8978
20
7585
0
SEQEND
0
POLYLINE
8
0
62
3
66
1
40
1
41
1
0
VERTEX
8
0
10
9157
20
7585
0
VERTEX
8
0
10
9066
20
7585
0
SEQEND
0
POLYLINE
8
0
62
3
66
1
40
1
41
1
0
VERTEX
8
0
10
9157
20
7673
0
VERTEX
8
0
10
9066
20
7673
0
SEQEND
0
POLYLINE
8
0
62
3
66
1
40
1
41
1
0
VERTEX
8
0
10
9157
20
7630
0
VERTEX
8
0
10
9066
20
7630
0
SEQEND
0
POLYLINE
8
0
62
3
66
1
40
1
41
1
0
VERTEX
8
0
10
9157
20
7539
0
VERTEX
8
0
10
9066
20
7539
0
SEQEND
0
POLYLINE
8
0
62
3
66
1
40
1
41
1
0
VERTEX
8
0
10
9157
20
7492
0
VERTEX
8
0
10
9066
20
7492
0
SEQEND
0
POLYLINE
8
0
62
3
66
1
40
1
41
1
0
VERTEX
8
0
10
9157
20
7449
0
VERTEX
8
0
10
9066
20
7449
0
SEQEND
0
POLYLINE
8
0
62
3
66
1
40
1
41
1
0
VERTEX
8
0
10
9157
20
7314
0
VERTEX
8
0
10
9066
20
7314
0
SEQEND
0
POLYLINE
8
0
62
3
66
1
40
1
41
1
0
VERTEX
8
0
10
9157
20
7357
0
VERTEX
8
0
10
9066
20
7357
0
SEQEND
0
POLYLINE
8
0
62
3
66
1
40
1
41
1
0
VERTEX
8
0
10
9157
20
7223
0
VERTEX
8
0
10
9066
20
7223
0
SEQEND
0
POLYLINE
8
0
62
3
66
1
40
1
41
1
0
VERTEX
8
0
10
9157
20
7268
0
VERTEX
8
0
10
9066
20
7268
0
SEQEND
0
POLYLINE
8
0
62
3
66
1
40
1
41
1
0
VERTEX
8
0
10
9157
20
7403
0
VERTEX
8
0
10
9066
20
7403
0
SEQEND
0
POLYLINE
8
0
62
3
66
1
40
1
41
1
0
VERTEX
8
0
10
9157
20
7942
0
VERTEX
8
0
10
9066
20
7942
0
SEQEND
0
POLYLINE
8
0
62
3
66
1
40
1
41
1
0
VERTEX
8
0
10
9157
20
7989
0
VERTEX
8
0
10
9066
20
7989
0
SEQEND
0
POLYLINE
8
0
62
3
66
1
40
1
41
1
0
VERTEX
8
0
10
9157
20
8035
0
VERTEX
8
0
10
9066
20
8035
0
SEQEND
0
POLYLINE
8
0
62
3
66
1
40
1
41
1
0
VERTEX
8
0
10
9157
20
8077
0
VERTEX
8
0
10
9066
20
8077
0
SEQEND
0
POLYLINE
8
0
62
3
66
1
40
1
41
1
0
VERTEX
8
0
10
9157
20
8123
0
VERTEX
8
0
10
9066
20
8123
0
SEQEND
0
POLYLINE
8
0
62
3
66
1
40
1
41
1
0
VERTEX
8
0
10
9157
20
8169
0
VERTEX
8
0
10
9066
20
8169
0
SEQEND
0
POLYLINE
8
0
62
3
66
1
40
1
41
1
0
VERTEX
8
0
10
9157
20
7719
0
VERTEX
8
0
10
9066
20
7719
0
SEQEND
0
POLYLINE
8
0
62
3
66
1
40
1
41
1
0
VERTEX
8
0
10
9157
20
7900
0
VERTEX
8
0
10
9066
20
7900
0
SEQEND
0
POLYLINE
8
0
62
3
66
1
40
1
41
1
0
VERTEX
8
0
10
9157
20
7765
0
VERTEX
8
0
10
9066
20
7765
0
SEQEND
0
POLYLINE
8
0
62
3
66
1
40
1
41
1
0
VERTEX
8
0
10
9157
20
7853
0
VERTEX
8
0
10
9066
20
7853
0
SEQEND
0
POLYLINE
8
0
62
3
66
1
40
1
41
1
0
VERTEX
8
0
10
9157
20
7807
0
VERTEX
8
0
10
9066
20
7807
0
SEQEND
0
POLYLINE
8
0
62
3
66
1
40
1
41
1
0
VERTEX
8
0
10
9157
20
8620
0
VERTEX
8
0
10
9066
20
8620
0
SEQEND
0
POLYLINE
8
0
62
3
66
1
40
1
41
1
0
VERTEX
8
0
10
9157
20
8662
0
VERTEX
8
0
10
9066
20
8662
0
SEQEND
0
POLYLINE
8
0
62
3
66
1
40
1
41
1
0
VERTEX
8
0
10
9157
20
8438
0
VERTEX
8
0
10
9066
20
8438
0
SEQEND
0
POLYLINE
8
0
62
3
66
1
40
1
41
1
0
VERTEX
8
0
10
9157
20
8485
0
VERTEX
8
0
10
9066
20
8485
0
SEQEND
0
POLYLINE
8
0
62
3
66
1
40
1
41
1
0
VERTEX
8
0
10
9157
20
8573
0
VERTEX
8
0
10
9066
20
8573
0
SEQEND
0
POLYLINE
8
0
62
3
66
1
40
1
41
1
0
VERTEX
8
0
10
9157
20
8527
0
VERTEX
8
0
10
9066
20
8527
0
SEQEND
0
POLYLINE
8
0
62
3
66
1
40
1
41
1
0
VERTEX
8
0
10
9157
20
8392
0
VERTEX
8
0
10
9066
20
8392
0
SEQEND
0
POLYLINE
8
0
62
3
66
1
40
1
41
1
0
VERTEX
8
0
10
9157
20
8304
0
VERTEX
8
0
10
9066
20
8304
0
SEQEND
0
POLYLINE
8
0
62
3
66
1
40
1
41
1
0
VERTEX
8
0
10
9157
20
8258
0
VERTEX
8
0
10
9066
20
8258
0
SEQEND
0
POLYLINE
8
0
62
3
66
1
40
1
41
1
0
VERTEX
8
0
10
9157
20
8211
0
VERTEX
8
0
10
9066
20
8211
0
SEQEND
0
POLYLINE
8
0
62
3
66
1
40
1
41
1
0
VERTEX
8
0
10
9157
20
8346
0
VERTEX
8
0
10
9066
20
8346
0
SEQEND
0
POLYLINE
8
0
62
3
66
1
40
1
41
1
0
VERTEX
8
0
10
9157
20
8978
0
VERTEX
8
0
10
9066
20
8978
0
SEQEND
0
POLYLINE
8
0
62
3
66
1
40
1
41
1
0
VERTEX
8
0
10
9157
20
9158
0
VERTEX
8
0
10
9066
20
9158
0
SEQEND
0
POLYLINE
8
0
62
3
66
1
40
1
41
1
0
VERTEX
8
0
10
9157
20
8931
0
VERTEX
8
0
10
9066
20
8931
0
SEQEND
0
POLYLINE
8
0
62
3
66
1
40
1
41
1
0
VERTEX
8
0
10
9157
20
9024
0
VERTEX
8
0
10
9066
20
9024
0
SEQEND
0
POLYLINE
8
0
62
3
66
1
40
1
41
1
0
VERTEX
8
0
10
9157
20
9112
0
VERTEX
8
0
10
9066
20
9112
0
SEQEND
0
POLYLINE
8
0
62
3
66
1
40
1
41
1
0
VERTEX
8
0
10
9157
20
9066
0
VERTEX
8
0
10
9066
20
9066
0
SEQEND
0
POLYLINE
8
0
62
3
66
1
40
1
41
1
0
VERTEX
8
0
10
9157
20
8708
0
VERTEX
8
0
10
9066
20
8708
0
SEQEND
0
POLYLINE
8
0
62
3
66
1
40
1
41
1
0
VERTEX
8
0
10
9157
20
8754
0
VERTEX
8
0
10
9066
20
8754
0
SEQEND
0
POLYLINE
8
0
62
3
66
1
40
1
41
1
0
VERTEX
8
0
10
9157
20
8797
0
VERTEX
8
0
10
9066
20
8797
0
SEQEND
0
POLYLINE
8
0
62
3
66
1
40
1
41
1
0
VERTEX
8
0
10
9157
20
8842
0
VERTEX
8
0
10
9066
20
8842
0
SEQEND
0
POLYLINE
8
0
62
3
66
1
40
1
41
1
0
VERTEX
8
0
10
9157
20
8888
0
VERTEX
8
0
10
9066
20
8888
0
SEQEND
0
POLYLINE
8
0
62
4
66
1
40
1
41
1
0
VERTEX
8
0
10
10353
20
10820
0
VERTEX
8
0
10
10264
20
10820
0
SEQEND
0
POLYLINE
8
0
62
5
66
1
40
1
41
1
0
VERTEX
8
0
10
10264
20
10820
0
VERTEX
8
0
10
10176
20
10820
0
SEQEND
0
POLYLINE
8
0
62
4
66
1
40
1
41
1
0
VERTEX
8
0
10
10353
20
11002
0
VERTEX
8
0
10
10264
20
11002
0
SEQEND
0
POLYLINE
8
0
62
4
66
1
40
1
41
1
0
VERTEX
8
0
10
10353
20
10282
0
VERTEX
8
0
10
10264
20
10282
0
SEQEND
0
POLYLINE
8
0
62
4
66
1
40
1
41
1
0
VERTEX
8
0
10
10353
20
10640
0
VERTEX
8
0
10
10264
20
10640
0
SEQEND
0
POLYLINE
8
0
62
4
66
1
40
1
41
1
0
VERTEX
8
0
10
10353
20
10463
0
VERTEX
8
0
10
10264
20
10463
0
SEQEND
0
POLYLINE
8
0
62
3
66
1
40
1
41
1
0
VERTEX
8
0
10
10444
20
10505
0
VERTEX
8
0
10
10353
20
10505
0
SEQEND
0
POLYLINE
8
0
62
3
66
1
40
1
41
1
0
VERTEX
8
0
10
10444
20
10193
0
VERTEX
8
0
10
10353
20
10193
0
SEQEND
0
POLYLINE
8
0
62
3
66
1
40
1
41
1
0
VERTEX
8
0
10
10444
20
10236
0
VERTEX
8
0
10
10353
20
10236
0
SEQEND
0
POLYLINE
8
0
62
3
66
1
40
1
41
1
0
VERTEX
8
0
10
10444
20
10282
0
VERTEX
8
0
10
10353
20
10282
0
SEQEND
0
POLYLINE
8
0
62
3
66
1
40
1
41
1
0
VERTEX
8
0
10
10444
20
10328
0
VERTEX
8
0
10
10353
20
10328
0
SEQEND
0
POLYLINE
8
0
62
3
66
1
40
1
41
1
0
VERTEX
8
0
10
10444
20
10416
0
VERTEX
8
0
10
10353
20
10416
0
SEQEND
0
POLYLINE
8
0
62
3
66
1
40
1
41
1
0
VERTEX
8
0
10
10444
20
10370
0
VERTEX
8
0
10
10353
20
10370
0
SEQEND
0
POLYLINE
8
0
62
3
66
1
40
1
41
1
0
VERTEX
8
0
10
10444
20
10551
0
VERTEX
8
0
10
10353
20
10551
0
SEQEND
0
POLYLINE
8
0
62
3
66
1
40
1
41
1
0
VERTEX
8
0
10
10444
20
10598
0
VERTEX
8
0
10
10353
20
10598
0
SEQEND
0
POLYLINE
8
0
62
3
66
1
40
1
41
1
0
VERTEX
8
0
10
10444
20
10640
0
VERTEX
8
0
10
10353
20
10640
0
SEQEND
0
POLYLINE
8
0
62
3
66
1
40
1
41
1
0
VERTEX
8
0
10
10444
20
10463
0
VERTEX
8
0
10
10353
20
10463
0
SEQEND
0
POLYLINE
8
0
62
3
66
1
40
1
41
1
0
VERTEX
8
0
10
10444
20
11090
0
VERTEX
8
0
10
10353
20
11090
0
SEQEND
0
POLYLINE
8
0
62
3
66
1
40
1
41
1
0
VERTEX
8
0
10
10444
20
11136
0
VERTEX
8
0
10
10353
20
11136
0
SEQEND
0
POLYLINE
8
0
62
3
66
1
40
1
41
1
0
VERTEX
8
0
10
10444
20
11048
0
VERTEX
8
0
10
10353
20
11048
0
SEQEND
0
POLYLINE
8
0
62
3
66
1
40
1
41
1
0
VERTEX
8
0
10
10444
20
11002
0
VERTEX
8
0
10
10353
20
11002
0
SEQEND
0
POLYLINE
8
0
62
3
66
1
40
1
41
1
0
VERTEX
8
0
10
10444
20
10956
0
VERTEX
8
0
10
10353
20
10956
0
SEQEND
0
POLYLINE
8
0
62
3
66
1
40
1
41
1
0
VERTEX
8
0
10
10444
20
10912
0
VERTEX
8
0
10
10353
20
10912
0
SEQEND
0
POLYLINE
8
0
62
3
66
1
40
1
41
1
0
VERTEX
8
0
10
10444
20
10732
0
VERTEX
8
0
10
10353
20
10732
0
SEQEND
0
POLYLINE
8
0
62
3
66
1
40
1
41
1
0
VERTEX
8
0
10
10444
20
10778
0
VERTEX
8
0
10
10353
20
10778
0
SEQEND
0
POLYLINE
8
0
62
3
66
1
40
1
41
1
0
VERTEX
8
0
10
10444
20
10820
0
VERTEX
8
0
10
10353
20
10820
0
SEQEND
0
POLYLINE
8
0
62
3
66
1
40
1
41
1
0
VERTEX
8
0
10
10444
20
10686
0
VERTEX
8
0
10
10353
20
10686
0
SEQEND
0
POLYLINE
8
0
62
3
66
1
40
1
41
1
0
VERTEX
8
0
10
10444
20
10866
0
VERTEX
8
0
10
10353
20
10866
0
SEQEND
0
POLYLINE
8
0
62
4
66
1
40
1
41
1
0
VERTEX
8
0
10
10353
20
9920
0
VERTEX
8
0
10
10264
20
9920
0
SEQEND
0
POLYLINE
8
0
62
4
66
1
40
1
41
1
0
VERTEX
8
0
10
10353
20
9743
0
VERTEX
8
0
10
10264
20
9743
0
SEQEND
0
POLYLINE
8
0
62
6
66
1
40
1
41
1
0
VERTEX
8
0
10
10176
20
10101
0
VERTEX
8
0
10
10084
20
10101
0
SEQEND
0
POLYLINE
8
0
62
5
66
1
40
1
41
1
0
VERTEX
8
0
10
10264
20
10101
0
VERTEX
8
0
10
10176
20
10101
0
SEQEND
0
POLYLINE
8
0
62
4
66
1
40
1
41
1
0
VERTEX
8
0
10
10353
20
10101
0
VERTEX
8
0
10
10264
20
10101
0
SEQEND
0
POLYLINE
8
0
62
5
66
1
40
1
41
1
0
VERTEX
8
0
10
10264
20
9381
0
VERTEX
8
0
10
10176
20
9381
0
SEQEND
0
POLYLINE
8
0
62
4
66
1
40
1
41
1
0
VERTEX
8
0
10
10353
20
9381
0
VERTEX
8
0
10
10264
20
9381
0
SEQEND
0
POLYLINE
8
0
62
4
66
1
40
1
41
1
0
VERTEX
8
0
10
10353
20
9204
0
VERTEX
8
0
10
10264
20
9204
0
SEQEND
0
POLYLINE
8
0
62
4
66
1
40
1
41
1
0
VERTEX
8
0
10
10353
20
9563
0
VERTEX
8
0
10
10264
20
9563
0
SEQEND
0
POLYLINE
8
0
62
3
66
1
40
1
41
1
0
VERTEX
8
0
10
10444
20
9474
0
VERTEX
8
0
10
10353
20
9474
0
SEQEND
0
POLYLINE
8
0
62
3
66
1
40
1
41
1
0
VERTEX
8
0
10
10444
20
9517
0
VERTEX
8
0
10
10353
20
9517
0
SEQEND
0
POLYLINE
8
0
62
3
66
1
40
1
41
1
0
VERTEX
8
0
10
10444
20
9651
0
VERTEX
8
0
10
10353
20
9651
0
SEQEND
0
POLYLINE
8
0
62
3
66
1
40
1
41
1
0
VERTEX
8
0
10
10444
20
9608
0
VERTEX
8
0
10
10353
20
9608
0
SEQEND
0
POLYLINE
8
0
62
3
66
1
40
1
41
1
0
VERTEX
8
0
10
10444
20
9381
0
VERTEX
8
0
10
10353
20
9381
0
SEQEND
0
POLYLINE
8
0
62
3
66
1
40
1
41
1
0
VERTEX
8
0
10
10444
20
9292
0
VERTEX
8
0
10
10353
20
9292
0
SEQEND
0
POLYLINE
8
0
62
3
66
1
40
1
41
1
0
VERTEX
8
0
10
10444
20
9563
0
VERTEX
8
0
10
10353
20
9563
0
SEQEND
0
POLYLINE
8
0
62
3
66
1
40
1
41
1
0
VERTEX
8
0
10
10444
20
9339
0
VERTEX
8
0
10
10353
20
9339
0
SEQEND
0
POLYLINE
8
0
62
3
66
1
40
1
41
1
0
VERTEX
8
0
10
10444
20
9247
0
VERTEX
8
0
10
10353
20
9247
0
SEQEND
0
POLYLINE
8
0
62
3
66
1
40
1
41
1
0
VERTEX
8
0
10
10444
20
9204
0
VERTEX
8
0
10
10353
20
9204
0
SEQEND
0
POLYLINE
8
0
62
3
66
1
40
1
41
1
0
VERTEX
8
0
10
10444
20
9427
0
VERTEX
8
0
10
10353
20
9427
0
SEQEND
0
POLYLINE
8
0
62
3
66
1
40
1
41
1
0
VERTEX
8
0
10
10444
20
10059
0
VERTEX
8
0
10
10353
20
10059
0
SEQEND
0
POLYLINE
8
0
62
3
66
1
40
1
41
1
0
VERTEX
8
0
10
10444
20
10101
0
VERTEX
8
0
10
10353
20
10101
0
SEQEND
0
POLYLINE
8
0
62
3
66
1
40
1
41
1
0
VERTEX
8
0
10
10444
20
9697
0
VERTEX
8
0
10
10353
20
9697
0
SEQEND
0
POLYLINE
8
0
62
3
66
1
40
1
41
1
0
VERTEX
8
0
10
10444
20
9743
0
VERTEX
8
0
10
10353
20
9743
0
SEQEND
0
POLYLINE
8
0
62
3
66
1
40
1
41
1
0
VERTEX
8
0
10
10444
20
9785
0
VERTEX
8
0
10
10353
20
9785
0
SEQEND
0
POLYLINE
8
0
62
3
66
1
40
1
41
1
0
VERTEX
8
0
10
10444
20
9967
0
VERTEX
8
0
10
10353
20
9967
0
SEQEND
0
POLYLINE
8
0
62
3
66
1
40
1
41
1
0
VERTEX
8
0
10
10444
20
9920
0
VERTEX
8
0
10
10353
20
9920
0
SEQEND
0
POLYLINE
8
0
62
3
66
1
40
1
41
1
0
VERTEX
8
0
10
10444
20
9878
0
VERTEX
8
0
10
10353
20
9878
0
SEQEND
0
POLYLINE
8
0
62
3
66
1
40
1
41
1
0
VERTEX
8
0
10
10444
20
9831
0
VERTEX
8
0
10
10353
20
9831
0
SEQEND
0
POLYLINE
8
0
62
3
66
1
40
1
41
1
0
VERTEX
8
0
10
10444
20
10013
0
VERTEX
8
0
10
10353
20
10013
0
SEQEND
0
POLYLINE
8
0
62
3
66
1
40
1
41
1
0
VERTEX
8
0
10
10444
20
10147
0
VERTEX
8
0
10
10353
20
10147
0
SEQEND
0
POLYLINE
8
0
62
4
66
1
40
1
41
1
0
VERTEX
8
0
10
10353
20
8842
0
VERTEX
8
0
10
10264
20
8842
0
SEQEND
0
POLYLINE
8
0
62
4
66
1
40
1
41
1
0
VERTEX
8
0
10
10353
20
9024
0
VERTEX
8
0
10
10264
20
9024
0
SEQEND
0
POLYLINE
8
0
62
4
66
1
40
1
41
1
0
VERTEX
8
0
10
10353
20
8304
0
VERTEX
8
0
10
10264
20
8304
0
SEQEND
0
POLYLINE
8
0
62
4
66
1
40
1
41
1
0
VERTEX
8
0
10
10353
20
8662
0
VERTEX
8
0
10
10264
20
8662
0
SEQEND
0
POLYLINE
8
0
62
5
66
1
40
1
41
1
0
VERTEX
8
0
10
10264
20
8662
0
VERTEX
8
0
10
10176
20
8662
0
SEQEND
0
POLYLINE
8
0
62
6
66
1
40
1
41
1
0
VERTEX
8
0
10
10176
20
8662
0
VERTEX
8
0
10
10084
20
8662
0
SEQEND
0
POLYLINE
8
0
62
4
66
1
40
1
41
1
0
VERTEX
8
0
10
10353
20
8485
0
VERTEX
8
0
10
10264
20
8485
0
SEQEND
0
POLYLINE
8
0
62
3
66
1
40
1
41
1
0
VERTEX
8
0
10
10444
20
8304
0
VERTEX
8
0
10
10353
20
8304
0
SEQEND
0
POLYLINE
8
0
62
3
66
1
40
1
41
1
0
VERTEX
8
0
10
10444
20
8392
0
VERTEX
8
0
10
10353
20
8392
0
SEQEND
0
POLYLINE
8
0
62
3
66
1
40
1
41
1
0
VERTEX
8
0
10
10444
20
8485
0
VERTEX
8
0
10
10353
20
8485
0
SEQEND
0
POLYLINE
8
0
62
3
66
1
40
1
41
1
0
VERTEX
8
0
10
10444
20
8438
0
VERTEX
8
0
10
10353
20
8438
0
SEQEND
0
POLYLINE
8
0
62
3
66
1
40
1
41
1
0
VERTEX
8
0
10
10444
20
8620
0
VERTEX
8
0
10
10353
20
8620
0
SEQEND
0
POLYLINE
8
0
62
3
66
1
40
1
41
1
0
VERTEX
8
0
10
10444
20
8662
0
VERTEX
8
0
10
10353
20
8662
0
SEQEND
0
POLYLINE
8
0
62
3
66
1
40
1
41
1
0
VERTEX
8
0
10
10444
20
8346
0
VERTEX
8
0
10
10353
20
8346
0
SEQEND
0
POLYLINE
8
0
62
3
66
1
40
1
41
1
0
VERTEX
8
0
10
10444
20
8211
0
VERTEX
8
0
10
10353
20
8211
0
SEQEND
0
POLYLINE
8
0
62
3
66
1
40
1
41
1
0
VERTEX
8
0
10
10444
20
8258
0
VERTEX
8
0
10
10353
20
8258
0
SEQEND
0
POLYLINE
8
0
62
3
66
1
40
1
41
1
0
VERTEX
8
0
10
10444
20
8527
0
VERTEX
8
0
10
10353
20
8527
0
SEQEND
0
POLYLINE
8
0
62
3
66
1
40
1
41
1
0
VERTEX
8
0
10
10444
20
8573
0
VERTEX
8
0
10
10353
20
8573
0
SEQEND
0
POLYLINE
8
0
62
3
66
1
40
1
41
1
0
VERTEX
8
0
10
10444
20
8842
0
VERTEX
8
0
10
10353
20
8842
0
SEQEND
0
POLYLINE
8
0
62
3
66
1
40
1
41
1
0
VERTEX
8
0
10
10444
20
8797
0
VERTEX
8
0
10
10353
20
8797
0
SEQEND
0
POLYLINE
8
0
62
3
66
1
40
1
41
1
0
VERTEX
8
0
10
10444
20
8978
0
VERTEX
8
0
10
10353
20
8978
0
SEQEND
0
POLYLINE
8
0
62
3
66
1
40
1
41
1
0
VERTEX
8
0
10
10444
20
9024
0
VERTEX
8
0
10
10353
20
9024
0
SEQEND
0
POLYLINE
8
0
62
3
66
1
40
1
41
1
0
VERTEX
8
0
10
10444
20
9066
0
VERTEX
8
0
10
10353
20
9066
0
SEQEND
0
POLYLINE
8
0
62
3
66
1
40
1
41
1
0
VERTEX
8
0
10
10444
20
8931
0
VERTEX
8
0
10
10353
20
8931
0
SEQEND
0
POLYLINE
8
0
62
3
66
1
40
1
41
1
0
VERTEX
8
0
10
10444
20
8888
0
VERTEX
8
0
10
10353
20
8888
0
SEQEND
0
POLYLINE
8
0
62
3
66
1
40
1
41
1
0
VERTEX
8
0
10
10444
20
9112
0
VERTEX
8
0
10
10353
20
9112
0
SEQEND
0
POLYLINE
8
0
62
3
66
1
40
1
41
1
0
VERTEX
8
0
10
10444
20
8708
0
VERTEX
8
0
10
10353
20
8708
0
SEQEND
0
POLYLINE
8
0
62
3
66
1
40
1
41
1
0
VERTEX
8
0
10
10444
20
9158
0
VERTEX
8
0
10
10353
20
9158
0
SEQEND
0
POLYLINE
8
0
62
3
66
1
40
1
41
1
0
VERTEX
8
0
10
10444
20
8754
0
VERTEX
8
0
10
10353
20
8754
0
SEQEND
0
POLYLINE
8
0
62
4
66
1
40
1
41
1
0
VERTEX
8
0
10
10353
20
7765
0
VERTEX
8
0
10
10264
20
7765
0
SEQEND
0
POLYLINE
8
0
62
4
66
1
40
1
41
1
0
VERTEX
8
0
10
10353
20
8123
0
VERTEX
8
0
10
10264
20
8123
0
SEQEND
0
POLYLINE
8
0
62
5
66
1
40
1
41
1
0
VERTEX
8
0
10
10264
20
7942
0
VERTEX
8
0
10
10176
20
7942
0
SEQEND
0
POLYLINE
8
0
62
4
66
1
40
1
41
1
0
VERTEX
8
0
10
10353
20
7942
0
VERTEX
8
0
10
10264
20
7942
0
SEQEND
0
POLYLINE
8
0
62
4
66
1
40
1
41
1
0
VERTEX
8
0
10
10353
20
7403
0
VERTEX
8
0
10
10264
20
7403
0
SEQEND
0
POLYLINE
8
0
62
4
66
1
40
1
41
1
0
VERTEX
8
0
10
10353
20
7223
0
VERTEX
8
0
10
10264
20
7223
0
SEQEND
0
POLYLINE
8
0
62
5
66
1
40
1
41
1
0
VERTEX
8
0
10
10264
20
7223
0
VERTEX
8
0
10
10176
20
7223
0
SEQEND
0
POLYLINE
8
0
62
6
66
1
40
1
41
1
0
VERTEX
8
0
10
10176
20
7223
0
VERTEX
8
0
10
10084
20
7223
0
SEQEND
0
POLYLINE
8
0
62
4
66
1
40
1
41
1
0
VERTEX
8
0
10
10353
20
7585
0
VERTEX
8
0
10
10264
20
7585
0
SEQEND
0
POLYLINE
8
0
62
3
66
1
40
1
41
1
0
VERTEX
8
0
10
10444
20
7357
0
VERTEX
8
0
10
10353
20
7357
0
SEQEND
0
POLYLINE
8
0
62
3
66
1
40
1
41
1
0
VERTEX
8
0
10
10444
20
7314
0
VERTEX
8
0
10
10353
20
7314
0
SEQEND
0
POLYLINE
8
0
62
3
66
1
40
1
41
1
0
VERTEX
8
0
10
10444
20
7268
0
VERTEX
8
0
10
10353
20
7268
0
SEQEND
0
POLYLINE
8
0
62
3
66
1
40
1
41
1
0
VERTEX
8
0
10
10444
20
7223
0
VERTEX
8
0
10
10353
20
7223
0
SEQEND
0
POLYLINE
8
0
62
3
66
1
40
1
41
1
0
VERTEX
8
0
10
10444
20
7585
0
VERTEX
8
0
10
10353
20
7585
0
SEQEND
0
POLYLINE
8
0
62
3
66
1
40
1
41
1
0
VERTEX
8
0
10
10444
20
7630
0
VERTEX
8
0
10
10353
20
7630
0
SEQEND
0
POLYLINE
8
0
62
3
66
1
40
1
41
1
0
VERTEX
8
0
10
10444
20
7673
0
VERTEX
8
0
10
10353
20
7673
0
SEQEND
0
POLYLINE
8
0
62
3
66
1
40
1
41
1
0
VERTEX
8
0
10
10444
20
7403
0
VERTEX
8
0
10
10353
20
7403
0
SEQEND
0
POLYLINE
8
0
62
3
66
1
40
1
41
1
0
VERTEX
8
0
10
10444
20
7449
0
VERTEX
8
0
10
10353
20
7449
0
SEQEND
0
POLYLINE
8
0
62
3
66
1
40
1
41
1
0
VERTEX
8
0
10
10444
20
7492
0
VERTEX
8
0
10
10353
20
7492
0
SEQEND
0
POLYLINE
8
0
62
3
66
1
40
1
41
1
0
VERTEX
8
0
10
10444
20
7539
0
VERTEX
8
0
10
10353
20
7539
0
SEQEND
0
POLYLINE
8
0
62
3
66
1
40
1
41
1
0
VERTEX
8
0
10
10444
20
8035
0
VERTEX
8
0
10
10353
20
8035
0
SEQEND
0
POLYLINE
8
0
62
3
66
1
40
1
41
1
0
VERTEX
8
0
10
10444
20
7989
0
VERTEX
8
0
10
10353
20
7989
0
SEQEND
0
POLYLINE
8
0
62
3
66
1
40
1
41
1
0
VERTEX
8
0
10
10444
20
8169
0
VERTEX
8
0
10
10353
20
8169
0
SEQEND
0
POLYLINE
8
0
62
3
66
1
40
1
41
1
0
VERTEX
8
0
10
10444
20
8123
0
VERTEX
8
0
10
10353
20
8123
0
SEQEND
0
POLYLINE
8
0
62
3
66
1
40
1
41
1
0
VERTEX
8
0
10
10444
20
8077
0
VERTEX
8
0
10
10353
20
8077
0
SEQEND
0
POLYLINE
8
0
62
3
66
1
40
1
41
1
0
VERTEX
8
0
10
10444
20
7853
0
VERTEX
8
0
10
10353
20
7853
0
SEQEND
0
POLYLINE
8
0
62
3
66
1
40
1
41
1
0
VERTEX
8
0
10
10444
20
7900
0
VERTEX
8
0
10
10353
20
7900
0
SEQEND
0
POLYLINE
8
0
62
3
66
1
40
1
41
1
0
VERTEX
8
0
10
10444
20
7942
0
VERTEX
8
0
10
10353
20
7942
0
SEQEND
0
POLYLINE
8
0
62
3
66
1
40
1
41
1
0
VERTEX
8
0
10
10444
20
7807
0
VERTEX
8
0
10
10353
20
7807
0
SEQEND
0
POLYLINE
8
0
62
3
66
1
40
1
41
1
0
VERTEX
8
0
10
10444
20
7719
0
VERTEX
8
0
10
10353
20
7719
0
SEQEND
0
POLYLINE
8
0
62
3
66
1
40
1
41
1
0
VERTEX
8
0
10
10444
20
7765
0
VERTEX
8
0
10
10353
20
7765
0
SEQEND
0
POLYLINE
8
0
62
6
66
1
40
1
41
1
0
VERTEX
8
0
10
10176
20
14419
0
VERTEX
8
0
10
9880
20
14419
0
SEQEND
0
POLYLINE
8
0
62
4
66
1
40
1
41
1
0
VERTEX
8
0
10
10353
20
6864
0
VERTEX
8
0
10
10264
20
6864
0
SEQEND
0
POLYLINE
8
0
62
4
66
1
40
1
41
1
0
VERTEX
8
0
10
10353
20
7046
0
VERTEX
8
0
10
10264
20
7046
0
SEQEND
0
POLYLINE
8
0
62
4
66
1
40
1
41
1
0
VERTEX
8
0
10
10353
20
6326
0
VERTEX
8
0
10
10264
20
6326
0
SEQEND
0
POLYLINE
8
0
62
4
66
1
40
1
41
1
0
VERTEX
8
0
10
10353
20
6684
0
VERTEX
8
0
10
10264
20
6684
0
SEQEND
0
POLYLINE
8
0
62
4
66
1
40
1
41
1
0
VERTEX
8
0
10
10353
20
6503
0
VERTEX
8
0
10
10264
20
6503
0
SEQEND
0
POLYLINE
8
0
62
5
66
1
40
1
41
1
0
VERTEX
8
0
10
10264
20
6503
0
VERTEX
8
0
10
10176
20
6503
0
SEQEND
0
POLYLINE
8
0
62
3
66
1
40
1
41
1
0
VERTEX
8
0
10
10444
20
6368
0
VERTEX
8
0
10
10353
20
6368
0
SEQEND
0
POLYLINE
8
0
62
3
66
1
40
1
41
1
0
VERTEX
8
0
10
10444
20
6326
0
VERTEX
8
0
10
10353
20
6326
0
SEQEND
0
POLYLINE
8
0
62
3
66
1
40
1
41
1
0
VERTEX
8
0
10
10444
20
6595
0
VERTEX
8
0
10
10353
20
6595
0
SEQEND
0
POLYLINE
8
0
62
3
66
1
40
1
41
1
0
VERTEX
8
0
10
10444
20
6549
0
VERTEX
8
0
10
10353
20
6549
0
SEQEND
0
POLYLINE
8
0
62
3
66
1
40
1
41
1
0
VERTEX
8
0
10
10444
20
6638
0
VERTEX
8
0
10
10353
20
6638
0
SEQEND
0
POLYLINE
8
0
62
3
66
1
40
1
41
1
0
VERTEX
8
0
10
10444
20
6684
0
VERTEX
8
0
10
10353
20
6684
0
SEQEND
0
POLYLINE
8
0
62
3
66
1
40
1
41
1
0
VERTEX
8
0
10
10444
20
6460
0
VERTEX
8
0
10
10353
20
6460
0
SEQEND
0
POLYLINE
8
0
62
3
66
1
40
1
41
1
0
VERTEX
8
0
10
10444
20
6414
0
VERTEX
8
0
10
10353
20
6414
0
SEQEND
0
POLYLINE
8
0
62
3
66
1
40
1
41
1
0
VERTEX
8
0
10
10444
20
6503
0
VERTEX
8
0
10
10353
20
6503
0
SEQEND
0
POLYLINE
8
0
62
3
66
1
40
1
41
1
0
VERTEX
8
0
10
10444
20
6280
0
VERTEX
8
0
10
10353
20
6280
0
SEQEND
0
POLYLINE
8
0
62
3
66
1
40
1
41
1
0
VERTEX
8
0
10
10444
20
6233
0
VERTEX
8
0
10
10353
20
6233
0
SEQEND
0
POLYLINE
8
0
62
3
66
1
40
1
41
1
0
VERTEX
8
0
10
10444
20
7180
0
VERTEX
8
0
10
10353
20
7180
0
SEQEND
0
POLYLINE
8
0
62
3
66
1
40
1
41
1
0
VERTEX
8
0
10
10444
20
6818
0
VERTEX
8
0
10
10353
20
6818
0
SEQEND
0
POLYLINE
8
0
62
3
66
1
40
1
41
1
0
VERTEX
8
0
10
10444
20
7134
0
VERTEX
8
0
10
10353
20
7134
0
SEQEND
0
POLYLINE
8
0
62
3
66
1
40
1
41
1
0
VERTEX
8
0
10
10444
20
6730
0
VERTEX
8
0
10
10353
20
6730
0
SEQEND
0
POLYLINE
8
0
62
3
66
1
40
1
41
1
0
VERTEX
8
0
10
10444
20
6776
0
VERTEX
8
0
10
10353
20
6776
0
SEQEND
0
POLYLINE
8
0
62
3
66
1
40
1
41
1
0
VERTEX
8
0
10
10444
20
7000
0
VERTEX
8
0
10
10353
20
7000
0
SEQEND
0
POLYLINE
8
0
62
3
66
1
40
1
41
1
0
VERTEX
8
0
10
10444
20
7046
0
VERTEX
8
0
10
10353
20
7046
0
SEQEND
0
POLYLINE
8
0
62
3
66
1
40
1
41
1
0
VERTEX
8
0
10
10444
20
7088
0
VERTEX
8
0
10
10353
20
7088
0
SEQEND
0
POLYLINE
8
0
62
3
66
1
40
1
41
1
0
VERTEX
8
0
10
10444
20
6952
0
VERTEX
8
0
10
10353
20
6952
0
SEQEND
0
POLYLINE
8
0
62
3
66
1
40
1
41
1
0
VERTEX
8
0
10
10444
20
6910
0
VERTEX
8
0
10
10353
20
6910
0
SEQEND
0
POLYLINE
8
0
62
3
66
1
40
1
41
1
0
VERTEX
8
0
10
10444
20
6864
0
VERTEX
8
0
10
10353
20
6864
0
SEQEND
0
POLYLINE
8
0
62
6
66
1
40
1
41
1
0
VERTEX
8
0
10
10176
20
5783
0
VERTEX
8
0
10
10084
20
5783
0
SEQEND
0
POLYLINE
8
0
62
5
66
1
40
1
41
1
0
VERTEX
8
0
10
10264
20
5783
0
VERTEX
8
0
10
10176
20
5783
0
SEQEND
0
POLYLINE
8
0
62
4
66
1
40
1
41
1
0
VERTEX
8
0
10
10353
20
5783
0
VERTEX
8
0
10
10264
20
5783
0
SEQEND
0
POLYLINE
8
0
62
4
66
1
40
1
41
1
0
VERTEX
8
0
10
10353
20
5964
0
VERTEX
8
0
10
10264
20
5964
0
SEQEND
0
POLYLINE
8
0
62
4
66
1
40
1
41
1
0
VERTEX
8
0
10
10353
20
6145
0
VERTEX
8
0
10
10264
20
6145
0
SEQEND
0
POLYLINE
8
0
62
4
66
1
40
1
41
1
0
VERTEX
8
0
10
10353
20
5245
0
VERTEX
8
0
10
10264
20
5245
0
SEQEND
0
POLYLINE
8
0
62
4
66
1
40
1
41
1
0
VERTEX
8
0
10
10353
20
5425
0
VERTEX
8
0
10
10264
20
5425
0
SEQEND
0
POLYLINE
8
0
62
4
66
1
40
1
41
1
0
VERTEX
8
0
10
10353
20
5606
0
VERTEX
8
0
10
10264
20
5606
0
SEQEND
0
POLYLINE
8
0
62
3
66
1
40
1
41
1
0
VERTEX
8
0
10
10444
20
5379
0
VERTEX
8
0
10
10353
20
5379
0
SEQEND
0
POLYLINE
8
0
62
3
66
1
40
1
41
1
0
VERTEX
8
0
10
10444
20
5245
0
VERTEX
8
0
10
10353
20
5245
0
SEQEND
0
POLYLINE
8
0
62
3
66
1
40
1
41
1
0
VERTEX
8
0
10
10444
20
5290
0
VERTEX
8
0
10
10353
20
5290
0
SEQEND
0
POLYLINE
8
0
62
3
66
1
40
1
41
1
0
VERTEX
8
0
10
10444
20
5336
0
VERTEX
8
0
10
10353
20
5336
0
SEQEND
0
POLYLINE
8
0
62
3
66
1
40
1
41
1
0
VERTEX
8
0
10
10444
20
5649
0
VERTEX
8
0
10
10353
20
5649
0
SEQEND
0
POLYLINE
8
0
62
3
66
1
40
1
41
1
0
VERTEX
8
0
10
10444
20
5695
0
VERTEX
8
0
10
10353
20
5695
0
SEQEND
0
POLYLINE
8
0
62
3
66
1
40
1
41
1
0
VERTEX
8
0
10
10444
20
5425
0
VERTEX
8
0
10
10353
20
5425
0
SEQEND
0
POLYLINE
8
0
62
3
66
1
40
1
41
1
0
VERTEX
8
0
10
10444
20
5606
0
VERTEX
8
0
10
10353
20
5606
0
SEQEND
0
POLYLINE
8
0
62
3
66
1
40
1
41
1
0
VERTEX
8
0
10
10444
20
5561
0
VERTEX
8
0
10
10353
20
5561
0
SEQEND
0
POLYLINE
8
0
62
3
66
1
40
1
41
1
0
VERTEX
8
0
10
10444
20
5514
0
VERTEX
8
0
10
10353
20
5514
0
SEQEND
0
POLYLINE
8
0
62
3
66
1
40
1
41
1
0
VERTEX
8
0
10
10444
20
5471
0
VERTEX
8
0
10
10353
20
5471
0
SEQEND
0
POLYLINE
8
0
62
3
66
1
40
1
41
1
0
VERTEX
8
0
10
10444
20
6099
0
VERTEX
8
0
10
10353
20
6099
0
SEQEND
0
POLYLINE
8
0
62
3
66
1
40
1
41
1
0
VERTEX
8
0
10
10444
20
6145
0
VERTEX
8
0
10
10353
20
6145
0
SEQEND
0
POLYLINE
8
0
62
3
66
1
40
1
41
1
0
VERTEX
8
0
10
10444
20
6191
0
VERTEX
8
0
10
10353
20
6191
0
SEQEND
0
POLYLINE
8
0
62
3
66
1
40
1
41
1
0
VERTEX
8
0
10
10444
20
6056
0
VERTEX
8
0
10
10353
20
6056
0
SEQEND
0
POLYLINE
8
0
62
3
66
1
40
1
41
1
0
VERTEX
8
0
10
10444
20
6011
0
VERTEX
8
0
10
10353
20
6011
0
SEQEND
0
POLYLINE
8
0
62
3
66
1
40
1
41
1
0
VERTEX
8
0
10
10444
20
5964
0
VERTEX
8
0
10
10353
20
5964
0
SEQEND
0
POLYLINE
8
0
62
3
66
1
40
1
41
1
0
VERTEX
8
0
10
10444
20
5829
0
VERTEX
8
0
10
10353
20
5829
0
SEQEND
0
POLYLINE
8
0
62
3
66
1
40
1
41
1
0
VERTEX
8
0
10
10444
20
5783
0
VERTEX
8
0
10
10353
20
5783
0
SEQEND
0
POLYLINE
8
0
62
3
66
1
40
1
41
1
0
VERTEX
8
0
10
10444
20
5741
0
VERTEX
8
0
10
10353
20
5741
0
SEQEND
0
POLYLINE
8
0
62
3
66
1
40
1
41
1
0
VERTEX
8
0
10
10444
20
5918
0
VERTEX
8
0
10
10353
20
5918
0
SEQEND
0
POLYLINE
8
0
62
3
66
1
40
1
41
1
0
VERTEX
8
0
10
10444
20
5875
0
VERTEX
8
0
10
10353
20
5875
0
SEQEND
0
POLYLINE
8
0
62
4
66
1
40
1
41
1
0
VERTEX
8
0
10
10353
20
4886
0
VERTEX
8
0
10
10264
20
4886
0
SEQEND
0
POLYLINE
8
0
62
5
66
1
40
1
41
1
0
VERTEX
8
0
10
10264
20
5064
0
VERTEX
8
0
10
10176
20
5064
0
SEQEND
0
POLYLINE
8
0
62
4
66
1
40
1
41
1
0
VERTEX
8
0
10
10353
20
5064
0
VERTEX
8
0
10
10264
20
5064
0
SEQEND
0
POLYLINE
8
0
62
4
66
1
40
1
41
1
0
VERTEX
8
0
10
10353
20
4706
0
VERTEX
8
0
10
10264
20
4706
0
SEQEND
0
POLYLINE
8
0
62
4
66
1
40
1
41
1
0
VERTEX
8
0
10
10353
20
4525
0
VERTEX
8
0
10
10264
20
4525
0
SEQEND
0
POLYLINE
8
0
62
3
66
1
40
1
41
1
0
VERTEX
8
0
10
10444
20
4344
0
VERTEX
8
0
10
10444
20
4302
0
VERTEX
8
0
10
10444
20
4255
0
VERTEX
8
0
10
10444
20
4209
0
VERTEX
8
0
10
10444
20
4167
0
VERTEX
8
0
10
10444
20
4121
0
VERTEX
8
0
10
10444
20
4075
0
VERTEX
8
0
10
10444
20
4033
0
VERTEX
8
0
10
10444
20
3986
0
VERTEX
8
0
10
10444
20
3940
0
VERTEX
8
0
10
10444
20
3897
0
VERTEX
8
0
10
10444
20
3876
0
VERTEX
8
0
10
10444
20
3851
0
VERTEX
8
0
10
10444
20
3805
0
VERTEX
8
0
10
10444
20
3763
0
VERTEX
8
0
10
10444
20
3717
0
VERTEX
8
0
10
10444
20
3671
0
VERTEX
8
0
10
10444
20
3628
0
VERTEX
8
0
10
10444
20
3583
0
VERTEX
8
0
10
10444
20
3536
0
VERTEX
8
0
10
10444
20
3496
0
VERTEX
8
0
10
10353
20
3496
0
SEQEND
0
POLYLINE
8
0
62
3
66
1
40
1
41
1
0
VERTEX
8
0
10
10444
20
4617
0
VERTEX
8
0
10
10353
20
4617
0
SEQEND
0
POLYLINE
8
0
62
3
66
1
40
1
41
1
0
VERTEX
8
0
10
10444
20
4571
0
VERTEX
8
0
10
10353
20
4571
0
SEQEND
0
POLYLINE
8
0
62
3
66
1
40
1
41
1
0
VERTEX
8
0
10
10444
20
4706
0
VERTEX
8
0
10
10353
20
4706
0
SEQEND
0
POLYLINE
8
0
62
3
66
1
40
1
41
1
0
VERTEX
8
0
10
10444
20
4525
0
VERTEX
8
0
10
10353
20
4525
0
SEQEND
0
POLYLINE
8
0
62
3
66
1
40
1
41
1
0
VERTEX
8
0
10
10444
20
4482
0
VERTEX
8
0
10
10353
20
4482
0
SEQEND
0
POLYLINE
8
0
62
3
66
1
40
1
41
1
0
VERTEX
8
0
10
10444
20
4390
0
VERTEX
8
0
10
10353
20
4390
0
SEQEND
0
POLYLINE
8
0
62
3
66
1
40
1
41
1
0
VERTEX
8
0
10
10444
20
4660
0
VERTEX
8
0
10
10353
20
4660
0
SEQEND
0
POLYLINE
8
0
62
3
66
1
40
1
41
1
0
VERTEX
8
0
10
10444
20
4255
0
VERTEX
8
0
10
10353
20
4255
0
SEQEND
0
POLYLINE
8
0
62
3
66
1
40
1
41
1
0
VERTEX
8
0
10
10444
20
4302
0
VERTEX
8
0
10
10353
20
4302
0
SEQEND
0
POLYLINE
8
0
62
3
66
1
40
1
41
1
0
VERTEX
8
0
10
10444
20
4436
0
VERTEX
8
0
10
10353
20
4436
0
SEQEND
0
POLYLINE
8
0
62
3
66
1
40
1
41
1
0
VERTEX
8
0
10
10444
20
5202
0
VERTEX
8
0
10
10353
20
5202
0
SEQEND
0
POLYLINE
8
0
62
3
66
1
40
1
41
1
0
VERTEX
8
0
10
10444
20
5156
0
VERTEX
8
0
10
10353
20
5156
0
SEQEND
0
POLYLINE
8
0
62
3
66
1
40
1
41
1
0
VERTEX
8
0
10
10444
20
4840
0
VERTEX
8
0
10
10353
20
4840
0
SEQEND
0
POLYLINE
8
0
62
3
66
1
40
1
41
1
0
VERTEX
8
0
10
10444
20
4794
0
VERTEX
8
0
10
10353
20
4794
0
SEQEND
0
POLYLINE
8
0
62
3
66
1
40
1
41
1
0
VERTEX
8
0
10
10444
20
4752
0
VERTEX
8
0
10
10353
20
4752
0
SEQEND
0
POLYLINE
8
0
62
3
66
1
40
1
41
1
0
VERTEX
8
0
10
10444
20
4886
0
VERTEX
8
0
10
10353
20
4886
0
SEQEND
0
POLYLINE
8
0
62
3
66
1
40
1
41
1
0
VERTEX
8
0
10
10444
20
4929
0
VERTEX
8
0
10
10353
20
4929
0
SEQEND
0
POLYLINE
8
0
62
3
66
1
40
1
41
1
0
VERTEX
8
0
10
10444
20
4974
0
VERTEX
8
0
10
10353
20
4974
0
SEQEND
0
POLYLINE
8
0
62
3
66
1
40
1
41
1
0
VERTEX
8
0
10
10444
20
5022
0
VERTEX
8
0
10
10353
20
5022
0
SEQEND
0
POLYLINE
8
0
62
3
66
1
40
1
41
1
0
VERTEX
8
0
10
10444
20
5064
0
VERTEX
8
0
10
10353
20
5064
0
SEQEND
0
POLYLINE
8
0
62
3
66
1
40
1
41
1
0
VERTEX
8
0
10
10444
20
5110
0
VERTEX
8
0
10
10353
20
5110
0
SEQEND
0
POLYLINE
8
0
62
6
66
1
40
1
41
1
0
VERTEX
8
0
10
10084
20
4344
0
VERTEX
8
0
10
10444
20
4344
0
SEQEND
0
POLYLINE
8
0
62
4
66
1
40
1
41
1
0
VERTEX
8
0
10
10353
20
3805
0
VERTEX
8
0
10
10264
20
3805
0
SEQEND
0
POLYLINE
8
0
62
4
66
1
40
1
41
1
0
VERTEX
8
0
10
10353
20
3986
0
VERTEX
8
0
10
10264
20
3986
0
SEQEND
0
POLYLINE
8
0
62
4
66
1
40
1
41
1
0
VERTEX
8
0
10
10353
20
4167
0
VERTEX
8
0
10
10264
20
4167
0
SEQEND
0
POLYLINE
8
0
62
4
66
1
40
1
41
1
0
VERTEX
8
0
10
10353
20
3447
0
VERTEX
8
0
10
10264
20
3447
0
SEQEND
0
POLYLINE
8
0
62
4
66
1
40
1
41
1
0
VERTEX
8
0
10
10353
20
3267
0
VERTEX
8
0
10
10264
20
3267
0
SEQEND
0
POLYLINE
8
0
62
4
66
1
40
1
41
1
0
VERTEX
8
0
10
10353
20
3628
0
VERTEX
8
0
10
10264
20
3628
0
SEQEND
0
POLYLINE
8
0
62
5
66
1
40
1
41
1
0
VERTEX
8
0
10
10264
20
3628
0
VERTEX
8
0
10
10176
20
3628
0
SEQEND
0
POLYLINE
8
0
62
3
66
1
40
1
41
1
0
VERTEX
8
0
10
10444
20
3536
0
VERTEX
8
0
10
10353
20
3536
0
SEQEND
0
POLYLINE
8
0
62
3
66
1
40
1
41
1
0
VERTEX
8
0
10
10444
20
3717
0
VERTEX
8
0
10
10353
20
3717
0
SEQEND
0
POLYLINE
8
0
62
3
66
1
40
1
41
1
0
VERTEX
8
0
10
10444
20
3671
0
VERTEX
8
0
10
10353
20
3671
0
SEQEND
0
POLYLINE
8
0
62
3
66
1
40
1
41
1
0
VERTEX
8
0
10
10444
20
3628
0
VERTEX
8
0
10
10353
20
3628
0
SEQEND
0
POLYLINE
8
0
62
3
66
1
40
1
41
1
0
VERTEX
8
0
10
10444
20
3583
0
VERTEX
8
0
10
10353
20
3583
0
SEQEND
0
POLYLINE
8
0
62
3
66
1
40
1
41
1
0
VERTEX
8
0
10
10444
20
3312
0
VERTEX
8
0
10
10353
20
3312
0
SEQEND
0
POLYLINE
8
0
62
3
66
1
40
1
41
1
0
VERTEX
8
0
10
10444
20
3267
0
VERTEX
8
0
10
10353
20
3267
0
SEQEND
0
POLYLINE
8
0
62
3
66
1
40
1
41
1
0
VERTEX
8
0
10
10444
20
3447
0
VERTEX
8
0
10
10353
20
3447
0
SEQEND
0
POLYLINE
8
0
62
3
66
1
40
1
41
1
0
VERTEX
8
0
10
10444
20
3401
0
VERTEX
8
0
10
10353
20
3401
0
SEQEND
0
POLYLINE
8
0
62
3
66
1
40
1
41
1
0
VERTEX
8
0
10
10444
20
3355
0
VERTEX
8
0
10
10353
20
3355
0
SEQEND
0
POLYLINE
8
0
62
3
66
1
40
1
41
1
0
VERTEX
8
0
10
10444
20
4167
0
VERTEX
8
0
10
10353
20
4167
0
SEQEND
0
POLYLINE
8
0
62
3
66
1
40
1
41
1
0
VERTEX
8
0
10
10444
20
4209
0
VERTEX
8
0
10
10353
20
4209
0
SEQEND
0
POLYLINE
8
0
62
3
66
1
40
1
41
1
0
VERTEX
8
0
10
10444
20
3986
0
VERTEX
8
0
10
10353
20
3986
0
SEQEND
0
POLYLINE
8
0
62
3
66
1
40
1
41
1
0
VERTEX
8
0
10
10444
20
3940
0
VERTEX
8
0
10
10353
20
3940
0
SEQEND
0
POLYLINE
8
0
62
3
66
1
40
1
41
1
0
VERTEX
8
0
10
10444
20
4033
0
VERTEX
8
0
10
10353
20
4033
0
SEQEND
0
POLYLINE
8
0
62
3
66
1
40
1
41
1
0
VERTEX
8
0
10
10444
20
4075
0
VERTEX
8
0
10
10353
20
4075
0
SEQEND
0
POLYLINE
8
0
62
3
66
1
40
1
41
1
0
VERTEX
8
0
10
10444
20
3897
0
VERTEX
8
0
10
10353
20
3897
0
SEQEND
0
POLYLINE
8
0
62
3
66
1
40
1
41
1
0
VERTEX
8
0
10
10444
20
4121
0
VERTEX
8
0
10
10353
20
4121
0
SEQEND
0
POLYLINE
8
0
62
3
66
1
40
1
41
1
0
VERTEX
8
0
10
10444
20
3763
0
VERTEX
8
0
10
10353
20
3763
0
SEQEND
0
POLYLINE
8
0
62
3
66
1
40
1
41
1
0
VERTEX
8
0
10
10444
20
3805
0
VERTEX
8
0
10
10353
20
3805
0
SEQEND
0
POLYLINE
8
0
62
3
66
1
40
1
41
1
0
VERTEX
8
0
10
10444
20
3851
0
VERTEX
8
0
10
10353
20
3851
0
SEQEND
0
POLYLINE
8
0
62
4
66
1
40
1
41
1
0
VERTEX
8
0
10
9066
20
6864
0
VERTEX
8
0
10
8978
20
6864
0
SEQEND
0
POLYLINE
8
0
62
4
66
1
40
1
41
1
0
VERTEX
8
0
10
9066
20
7046
0
VERTEX
8
0
10
8978
20
7046
0
SEQEND
0
POLYLINE
8
0
62
4
66
1
40
1
41
1
0
VERTEX
8
0
10
9066
20
6326
0
VERTEX
8
0
10
8978
20
6326
0
SEQEND
0
POLYLINE
8
0
62
5
66
1
40
1
41
1
0
VERTEX
8
0
10
8978
20
6503
0
VERTEX
8
0
10
8890
20
6503
0
SEQEND
0
POLYLINE
8
0
62
4
66
1
40
1
41
1
0
VERTEX
8
0
10
9066
20
6503
0
VERTEX
8
0
10
8978
20
6503
0
SEQEND
0
POLYLINE
8
0
62
4
66
1
40
1
41
1
0
VERTEX
8
0
10
9066
20
6684
0
VERTEX
8
0
10
8978
20
6684
0
SEQEND
0
POLYLINE
8
0
62
6
66
1
40
1
41
1
0
VERTEX
8
0
10
8890
20
5783
0
VERTEX
8
0
10
8798
20
5783
0
SEQEND
0
POLYLINE
8
0
62
5
66
1
40
1
41
1
0
VERTEX
8
0
10
8978
20
5783
0
VERTEX
8
0
10
8890
20
5783
0
SEQEND
0
POLYLINE
8
0
62
4
66
1
40
1
41
1
0
VERTEX
8
0
10
9066
20
5783
0
VERTEX
8
0
10
8978
20
5783
0
SEQEND
0
POLYLINE
8
0
62
4
66
1
40
1
41
1
0
VERTEX
8
0
10
9066
20
6145
0
VERTEX
8
0
10
8978
20
6145
0
SEQEND
0
POLYLINE
8
0
62
4
66
1
40
1
41
1
0
VERTEX
8
0
10
9066
20
5964
0
VERTEX
8
0
10
8978
20
5964
0
SEQEND
0
POLYLINE
8
0
62
4
66
1
40
1
41
1
0
VERTEX
8
0
10
9066
20
5245
0
VERTEX
8
0
10
8978
20
5245
0
SEQEND
0
POLYLINE
8
0
62
4
66
1
40
1
41
1
0
VERTEX
8
0
10
9066
20
5425
0
VERTEX
8
0
10
8978
20
5425
0
SEQEND
0
POLYLINE
8
0
62
4
66
1
40
1
41
1
0
VERTEX
8
0
10
9066
20
5606
0
VERTEX
8
0
10
8978
20
5606
0
SEQEND
0
POLYLINE
8
0
62
3
66
1
40
1
41
1
0
VERTEX
8
0
10
9157
20
5695
0
VERTEX
8
0
10
9066
20
5695
0
SEQEND
0
POLYLINE
8
0
62
3
66
1
40
1
41
1
0
VERTEX
8
0
10
9157
20
5649
0
VERTEX
8
0
10
9066
20
5649
0
SEQEND
0
POLYLINE
8
0
62
3
66
1
40
1
41
1
0
VERTEX
8
0
10
9157
20
5606
0
VERTEX
8
0
10
9066
20
5606
0
SEQEND
0
POLYLINE
8
0
62
3
66
1
40
1
41
1
0
VERTEX
8
0
10
9157
20
5561
0
VERTEX
8
0
10
9066
20
5561
0
SEQEND
0
POLYLINE
8
0
62
3
66
1
40
1
41
1
0
VERTEX
8
0
10
9157
20
5514
0
VERTEX
8
0
10
9066
20
5514
0
SEQEND
0
POLYLINE
8
0
62
3
66
1
40
1
41
1
0
VERTEX
8
0
10
9157
20
5471
0
VERTEX
8
0
10
9066
20
5471
0
SEQEND
0
POLYLINE
8
0
62
3
66
1
40
1
41
1
0
VERTEX
8
0
10
9157
20
5336
0
VERTEX
8
0
10
9066
20
5336
0
SEQEND
0
POLYLINE
8
0
62
3
66
1
40
1
41
1
0
VERTEX
8
0
10
9157
20
5425
0
VERTEX
8
0
10
9066
20
5425
0
SEQEND
0
POLYLINE
8
0
62
3
66
1
40
1
41
1
0
VERTEX
8
0
10
9157
20
5290
0
VERTEX
8
0
10
9066
20
5290
0
SEQEND
0
POLYLINE
8
0
62
3
66
1
40
1
41
1
0
VERTEX
8
0
10
9157
20
5245
0
VERTEX
8
0
10
9066
20
5245
0
SEQEND
0
POLYLINE
8
0
62
3
66
1
40
1
41
1
0
VERTEX
8
0
10
9157
20
5379
0
VERTEX
8
0
10
9066
20
5379
0
SEQEND
0
POLYLINE
8
0
62
3
66
1
40
1
41
1
0
VERTEX
8
0
10
9157
20
5964
0
VERTEX
8
0
10
9066
20
5964
0
SEQEND
0
POLYLINE
8
0
62
3
66
1
40
1
41
1
0
VERTEX
8
0
10
9157
20
6056
0
VERTEX
8
0
10
9066
20
6056
0
SEQEND
0
POLYLINE
8
0
62
3
66
1
40
1
41
1
0
VERTEX
8
0
10
9157
20
6099
0
VERTEX
8
0
10
9066
20
6099
0
SEQEND
0
POLYLINE
8
0
62
3
66
1
40
1
41
1
0
VERTEX
8
0
10
9157
20
6191
0
VERTEX
8
0
10
9066
20
6191
0
SEQEND
0
POLYLINE
8
0
62
3
66
1
40
1
41
1
0
VERTEX
8
0
10
9157
20
6145
0
VERTEX
8
0
10
9066
20
6145
0
SEQEND
0
POLYLINE
8
0
62
3
66
1
40
1
41
1
0
VERTEX
8
0
10
9157
20
6011
0
VERTEX
8
0
10
9066
20
6011
0
SEQEND
0
POLYLINE
8
0
62
3
66
1
40
1
41
1
0
VERTEX
8
0
10
9157
20
5741
0
VERTEX
8
0
10
9066
20
5741
0
SEQEND
0
POLYLINE
8
0
62
3
66
1
40
1
41
1
0
VERTEX
8
0
10
9157
20
5783
0
VERTEX
8
0
10
9066
20
5783
0
SEQEND
0
POLYLINE
8
0
62
3
66
1
40
1
41
1
0
VERTEX
8
0
10
9157
20
5918
0
VERTEX
8
0
10
9066
20
5918
0
SEQEND
0
POLYLINE
8
0
62
3
66
1
40
1
41
1
0
VERTEX
8
0
10
9157
20
5875
0
VERTEX
8
0
10
9066
20
5875
0
SEQEND
0
POLYLINE
8
0
62
3
66
1
40
1
41
1
0
VERTEX
8
0
10
9157
20
5829
0
VERTEX
8
0
10
9066
20
5829
0
SEQEND
0
POLYLINE
8
0
62
3
66
1
40
1
41
1
0
VERTEX
8
0
10
9157
20
6684
0
VERTEX
8
0
10
9066
20
6684
0
SEQEND
0
POLYLINE
8
0
62
3
66
1
40
1
41
1
0
VERTEX
8
0
10
9157
20
6549
0
VERTEX
8
0
10
9066
20
6549
0
SEQEND
0
POLYLINE
8
0
62
3
66
1
40
1
41
1
0
VERTEX
8
0
10
9157
20
6595
0
VERTEX
8
0
10
9066
20
6595
0
SEQEND
0
POLYLINE
8
0
62
3
66
1
40
1
41
1
0
VERTEX
8
0
10
9157
20
6638
0
VERTEX
8
0
10
9066
20
6638
0
SEQEND
0
POLYLINE
8
0
62
3
66
1
40
1
41
1
0
VERTEX
8
0
10
9157
20
6503
0
VERTEX
8
0
10
9066
20
6503
0
SEQEND
0
POLYLINE
8
0
62
3
66
1
40
1
41
1
0
VERTEX
8
0
10
9157
20
6460
0
VERTEX
8
0
10
9066
20
6460
0
SEQEND
0
POLYLINE
8
0
62
3
66
1
40
1
41
1
0
VERTEX
8
0
10
9157
20
6368
0
VERTEX
8
0
10
9066
20
6368
0
SEQEND
0
POLYLINE
8
0
62
3
66
1
40
1
41
1
0
VERTEX
8
0
10
9157
20
6326
0
VERTEX
8
0
10
9066
20
6326
0
SEQEND
0
POLYLINE
8
0
62
3
66
1
40
1
41
1
0
VERTEX
8
0
10
9157
20
6280
0
VERTEX
8
0
10
9066
20
6280
0
SEQEND
0
POLYLINE
8
0
62
3
66
1
40
1
41
1
0
VERTEX
8
0
10
9157
20
6233
0
VERTEX
8
0
10
9066
20
6233
0
SEQEND
0
POLYLINE
8
0
62
3
66
1
40
1
41
1
0
VERTEX
8
0
10
9157
20
6414
0
VERTEX
8
0
10
9066
20
6414
0
SEQEND
0
POLYLINE
8
0
62
3
66
1
40
1
41
1
0
VERTEX
8
0
10
9157
20
7088
0
VERTEX
8
0
10
9066
20
7088
0
SEQEND
0
POLYLINE
8
0
62
3
66
1
40
1
41
1
0
VERTEX
8
0
10
9157
20
7180
0
VERTEX
8
0
10
9066
20
7180
0
SEQEND
0
POLYLINE
8
0
62
3
66
1
40
1
41
1
0
VERTEX
8
0
10
9157
20
7134
0
VERTEX
8
0
10
9066
20
7134
0
SEQEND
0
POLYLINE
8
0
62
3
66
1
40
1
41
1
0
VERTEX
8
0
10
9157
20
6952
0
VERTEX
8
0
10
9066
20
6952
0
SEQEND
0
POLYLINE
8
0
62
3
66
1
40
1
41
1
0
VERTEX
8
0
10
9157
20
7000
0
VERTEX
8
0
10
9066
20
7000
0
SEQEND
0
POLYLINE
8
0
62
3
66
1
40
1
41
1
0
VERTEX
8
0
10
9157
20
7046
0
VERTEX
8
0
10
9066
20
7046
0
SEQEND
0
POLYLINE
8
0
62
3
66
1
40
1
41
1
0
VERTEX
8
0
10
9157
20
6864
0
VERTEX
8
0
10
9066
20
6864
0
SEQEND
0
POLYLINE
8
0
62
3
66
1
40
1
41
1
0
VERTEX
8
0
10
9157
20
6910
0
VERTEX
8
0
10
9066
20
6910
0
SEQEND
0
POLYLINE
8
0
62
3
66
1
40
1
41
1
0
VERTEX
8
0
10
9157
20
6818
0
VERTEX
8
0
10
9066
20
6818
0
SEQEND
0
POLYLINE
8
0
62
3
66
1
40
1
41
1
0
VERTEX
8
0
10
9157
20
6730
0
VERTEX
8
0
10
9066
20
6730
0
SEQEND
0
POLYLINE
8
0
62
3
66
1
40
1
41
1
0
VERTEX
8
0
10
9157
20
6776
0
VERTEX
8
0
10
9066
20
6776
0
SEQEND
0
POLYLINE
8
0
62
3
66
1
40
1
41
1
0
VERTEX
8
0
10
7929
20
7088
0
VERTEX
8
0
10
7837
20
7088
0
SEQEND
0
POLYLINE
8
0
62
3
66
1
40
1
41
1
0
VERTEX
8
0
10
7929
20
7134
0
VERTEX
8
0
10
7837
20
7134
0
SEQEND
0
POLYLINE
8
0
62
3
66
1
40
1
41
1
0
VERTEX
8
0
10
7929
20
7180
0
VERTEX
8
0
10
7837
20
7180
0
SEQEND
0
POLYLINE
8
0
62
3
66
1
40
1
41
1
0
VERTEX
8
0
10
7929
20
7000
0
VERTEX
8
0
10
7837
20
7000
0
SEQEND
0
POLYLINE
8
0
62
3
66
1
40
1
41
1
0
VERTEX
8
0
10
7929
20
7046
0
VERTEX
8
0
10
7837
20
7046
0
SEQEND
0
POLYLINE
8
0
62
3
66
1
40
1
41
1
0
VERTEX
8
0
10
7929
20
6952
0
VERTEX
8
0
10
7837
20
6952
0
SEQEND
0
POLYLINE
8
0
62
4
66
1
40
1
41
1
0
VERTEX
8
0
10
7837
20
7046
0
VERTEX
8
0
10
7749
20
7046
0
SEQEND
0
POLYLINE
8
0
62
3
66
1
40
1
41
1
0
VERTEX
8
0
10
7929
20
6910
0
VERTEX
8
0
10
7837
20
6910
0
SEQEND
0
POLYLINE
8
0
62
3
66
1
40
1
41
1
0
VERTEX
8
0
10
7929
20
6864
0
VERTEX
8
0
10
7837
20
6864
0
SEQEND
0
POLYLINE
8
0
62
3
66
1
40
1
41
1
0
VERTEX
8
0
10
7929
20
6776
0
VERTEX
8
0
10
7837
20
6776
0
SEQEND
0
POLYLINE
8
0
62
3
66
1
40
1
41
1
0
VERTEX
8
0
10
7929
20
6818
0
VERTEX
8
0
10
7837
20
6818
0
SEQEND
0
POLYLINE
8
0
62
3
66
1
40
1
41
1
0
VERTEX
8
0
10
7929
20
6730
0
VERTEX
8
0
10
7837
20
6730
0
SEQEND
0
POLYLINE
8
0
62
4
66
1
40
1
41
1
0
VERTEX
8
0
10
7837
20
6864
0
VERTEX
8
0
10
7749
20
6864
0
SEQEND
0
POLYLINE
8
0
62
3
66
1
40
1
41
1
0
VERTEX
8
0
10
7929
20
6595
0
VERTEX
8
0
10
7837
20
6595
0
SEQEND
0
POLYLINE
8
0
62
3
66
1
40
1
41
1
0
VERTEX
8
0
10
7929
20
6638
0
VERTEX
8
0
10
7837
20
6638
0
SEQEND
0
POLYLINE
8
0
62
3
66
1
40
1
41
1
0
VERTEX
8
0
10
7929
20
6684
0
VERTEX
8
0
10
7837
20
6684
0
SEQEND
0
POLYLINE
8
0
62
3
66
1
40
1
41
1
0
VERTEX
8
0
10
7929
20
6460
0
VERTEX
8
0
10
7837
20
6460
0
SEQEND
0
POLYLINE
8
0
62
3
66
1
40
1
41
1
0
VERTEX
8
0
10
7929
20
6503
0
VERTEX
8
0
10
7837
20
6503
0
SEQEND
0
POLYLINE
8
0
62
3
66
1
40
1
41
1
0
VERTEX
8
0
10
7929
20
6549
0
VERTEX
8
0
10
7837
20
6549
0
SEQEND
0
POLYLINE
8
0
62
4
66
1
40
1
41
1
0
VERTEX
8
0
10
7837
20
6503
0
VERTEX
8
0
10
7749
20
6503
0
SEQEND
0
POLYLINE
8
0
62
4
66
1
40
1
41
1
0
VERTEX
8
0
10
7837
20
6684
0
VERTEX
8
0
10
7749
20
6684
0
SEQEND
0
POLYLINE
8
0
62
3
66
1
40
1
41
1
0
VERTEX
8
0
10
7929
20
6326
0
VERTEX
8
0
10
7837
20
6326
0
SEQEND
0
POLYLINE
8
0
62
3
66
1
40
1
41
1
0
VERTEX
8
0
10
7929
20
6414
0
VERTEX
8
0
10
7837
20
6414
0
SEQEND
0
POLYLINE
8
0
62
3
66
1
40
1
41
1
0
VERTEX
8
0
10
7929
20
6368
0
VERTEX
8
0
10
7837
20
6368
0
SEQEND
0
POLYLINE
8
0
62
3
66
1
40
1
41
1
0
VERTEX
8
0
10
7929
20
6280
0
VERTEX
8
0
10
7837
20
6280
0
SEQEND
0
POLYLINE
8
0
62
3
66
1
40
1
41
1
0
VERTEX
8
0
10
7929
20
6233
0
VERTEX
8
0
10
7837
20
6233
0
SEQEND
0
POLYLINE
8
0
62
4
66
1
40
1
41
1
0
VERTEX
8
0
10
7837
20
6326
0
VERTEX
8
0
10
7749
20
6326
0
SEQEND
0
POLYLINE
8
0
62
5
66
1
40
1
41
1
0
VERTEX
8
0
10
7749
20
6503
0
VERTEX
8
0
10
7658
20
6503
0
SEQEND
0
POLYLINE
8
0
62
3
66
1
40
1
41
1
0
VERTEX
8
0
10
7929
20
6191
0
VERTEX
8
0
10
7837
20
6191
0
SEQEND
0
POLYLINE
8
0
62
3
66
1
40
1
41
1
0
VERTEX
8
0
10
7929
20
6099
0
VERTEX
8
0
10
7837
20
6099
0
SEQEND
0
POLYLINE
8
0
62
3
66
1
40
1
41
1
0
VERTEX
8
0
10
7929
20
6145
0
VERTEX
8
0
10
7837
20
6145
0
SEQEND
0
POLYLINE
8
0
62
3
66
1
40
1
41
1
0
VERTEX
8
0
10
7929
20
5964
0
VERTEX
8
0
10
7837
20
5964
0
SEQEND
0
POLYLINE
8
0
62
3
66
1
40
1
41
1
0
VERTEX
8
0
10
7929
20
6011
0
VERTEX
8
0
10
7837
20
6011
0
SEQEND
0
POLYLINE
8
0
62
3
66
1
40
1
41
1
0
VERTEX
8
0
10
7929
20
6056
0
VERTEX
8
0
10
7837
20
6056
0
SEQEND
0
POLYLINE
8
0
62
4
66
1
40
1
41
1
0
VERTEX
8
0
10
7837
20
5964
0
VERTEX
8
0
10
7749
20
5964
0
SEQEND
0
POLYLINE
8
0
62
4
66
1
40
1
41
1
0
VERTEX
8
0
10
7837
20
6145
0
VERTEX
8
0
10
7749
20
6145
0
SEQEND
0
POLYLINE
8
0
62
6
66
1
40
1
41
1
0
VERTEX
8
0
10
7658
20
5783
0
VERTEX
8
0
10
7569
20
5783
0
SEQEND
0
POLYLINE
8
0
62
3
66
1
40
1
41
1
0
VERTEX
8
0
10
7929
20
5875
0
VERTEX
8
0
10
7837
20
5875
0
SEQEND
0
POLYLINE
8
0
62
3
66
1
40
1
41
1
0
VERTEX
8
0
10
7929
20
5918
0
VERTEX
8
0
10
7837
20
5918
0
SEQEND
0
POLYLINE
8
0
62
3
66
1
40
1
41
1
0
VERTEX
8
0
10
7929
20
5829
0
VERTEX
8
0
10
7837
20
5829
0
SEQEND
0
POLYLINE
8
0
62
3
66
1
40
1
41
1
0
VERTEX
8
0
10
7929
20
5741
0
VERTEX
8
0
10
7837
20
5741
0
SEQEND
0
POLYLINE
8
0
62
3
66
1
40
1
41
1
0
VERTEX
8
0
10
7929
20
5783
0
VERTEX
8
0
10
7837
20
5783
0
SEQEND
0
POLYLINE
8
0
62
4
66
1
40
1
41
1
0
VERTEX
8
0
10
7837
20
5783
0
VERTEX
8
0
10
7749
20
5783
0
SEQEND
0
POLYLINE
8
0
62
5
66
1
40
1
41
1
0
VERTEX
8
0
10
7749
20
5783
0
VERTEX
8
0
10
7658
20
5783
0
SEQEND
0
POLYLINE
8
0
62
3
66
1
40
1
41
1
0
VERTEX
8
0
10
7929
20
5606
0
VERTEX
8
0
10
7837
20
5606
0
SEQEND
0
POLYLINE
8
0
62
3
66
1
40
1
41
1
0
VERTEX
8
0
10
7929
20
5649
0
VERTEX
8
0
10
7837
20
5649
0
SEQEND
0
POLYLINE
8
0
62
3
66
1
40
1
41
1
0
VERTEX
8
0
10
7929
20
5695
0
VERTEX
8
0
10
7837
20
5695
0
SEQEND
0
POLYLINE
8
0
62
3
66
1
40
1
41
1
0
VERTEX
8
0
10
7929
20
5514
0
VERTEX
8
0
10
7837
20
5514
0
SEQEND
0
POLYLINE
8
0
62
3
66
1
40
1
41
1
0
VERTEX
8
0
10
7929
20
5471
0
VERTEX
8
0
10
7837
20
5471
0
SEQEND
0
POLYLINE
8
0
62
3
66
1
40
1
41
1
0
VERTEX
8
0
10
7929
20
5561
0
VERTEX
8
0
10
7837
20
5561
0
SEQEND
0
POLYLINE
8
0
62
4
66
1
40
1
41
1
0
VERTEX
8
0
10
7837
20
5606
0
VERTEX
8
0
10
7749
20
5606
0
SEQEND
0
POLYLINE
8
0
62
3
66
1
40
1
41
1
0
VERTEX
8
0
10
7929
20
5425
0
VERTEX
8
0
10
7837
20
5425
0
SEQEND
0
POLYLINE
8
0
62
3
66
1
40
1
41
1
0
VERTEX
8
0
10
7929
20
5379
0
VERTEX
8
0
10
7837
20
5379
0
SEQEND
0
POLYLINE
8
0
62
3
66
1
40
1
41
1
0
VERTEX
8
0
10
7929
20
5336
0
VERTEX
8
0
10
7837
20
5336
0
SEQEND
0
POLYLINE
8
0
62
3
66
1
40
1
41
1
0
VERTEX
8
0
10
7929
20
5245
0
VERTEX
8
0
10
7837
20
5245
0
SEQEND
0
POLYLINE
8
0
62
3
66
1
40
1
41
1
0
VERTEX
8
0
10
7929
20
5290
0
VERTEX
8
0
10
7837
20
5290
0
SEQEND
0
POLYLINE
8
0
62
4
66
1
40
1
41
1
0
VERTEX
8
0
10
7837
20
5245
0
VERTEX
8
0
10
7749
20
5245
0
SEQEND
0
POLYLINE
8
0
62
4
66
1
40
1
41
1
0
VERTEX
8
0
10
7837
20
5425
0
VERTEX
8
0
10
7749
20
5425
0
SEQEND
0
POLYLINE
8
0
62
3
66
1
40
1
41
1
0
VERTEX
8
0
10
7929
20
5202
0
VERTEX
8
0
10
7837
20
5202
0
SEQEND
0
POLYLINE
8
0
62
3
66
1
40
1
41
1
0
VERTEX
8
0
10
7929
20
5156
0
VERTEX
8
0
10
7837
20
5156
0
SEQEND
0
POLYLINE
8
0
62
3
66
1
40
1
41
1
0
VERTEX
8
0
10
7929
20
5110
0
VERTEX
8
0
10
7837
20
5110
0
SEQEND
0
POLYLINE
8
0
62
3
66
1
40
1
41
1
0
VERTEX
8
0
10
7929
20
5022
0
VERTEX
8
0
10
7837
20
5022
0
SEQEND
0
POLYLINE
8
0
62
3
66
1
40
1
41
1
0
VERTEX
8
0
10
7929
20
4974
0
VERTEX
8
0
10
7837
20
4974
0
SEQEND
0
POLYLINE
8
0
62
3
66
1
40
1
41
1
0
VERTEX
8
0
10
7929
20
5064
0
VERTEX
8
0
10
7837
20
5064
0
SEQEND
0
POLYLINE
8
0
62
4
66
1
40
1
41
1
0
VERTEX
8
0
10
7837
20
5064
0
VERTEX
8
0
10
7749
20
5064
0
SEQEND
0
POLYLINE
8
0
62
3
66
1
40
1
41
1
0
VERTEX
8
0
10
7929
20
4840
0
VERTEX
8
0
10
7837
20
4840
0
SEQEND
0
POLYLINE
8
0
62
3
66
1
40
1
41
1
0
VERTEX
8
0
10
7929
20
4929
0
VERTEX
8
0
10
7837
20
4929
0
SEQEND
0
POLYLINE
8
0
62
3
66
1
40
1
41
1
0
VERTEX
8
0
10
7929
20
4886
0
VERTEX
8
0
10
7837
20
4886
0
SEQEND
0
POLYLINE
8
0
62
3
66
1
40
1
41
1
0
VERTEX
8
0
10
7929
20
4794
0
VERTEX
8
0
10
7837
20
4794
0
SEQEND
0
POLYLINE
8
0
62
3
66
1
40
1
41
1
0
VERTEX
8
0
10
7929
20
4752
0
VERTEX
8
0
10
7837
20
4752
0
SEQEND
0
POLYLINE
8
0
62
4
66
1
40
1
41
1
0
VERTEX
8
0
10
7837
20
4886
0
VERTEX
8
0
10
7749
20
4886
0
SEQEND
0
POLYLINE
8
0
62
5
66
1
40
1
41
1
0
VERTEX
8
0
10
7749
20
5064
0
VERTEX
8
0
10
7658
20
5064
0
SEQEND
0
POLYLINE
8
0
62
3
66
1
40
1
41
1
0
VERTEX
8
0
10
7929
20
4706
0
VERTEX
8
0
10
7837
20
4706
0
SEQEND
0
POLYLINE
8
0
62
3
66
1
40
1
41
1
0
VERTEX
8
0
10
7929
20
4617
0
VERTEX
8
0
10
7837
20
4617
0
SEQEND
0
POLYLINE
8
0
62
3
66
1
40
1
41
1
0
VERTEX
8
0
10
7929
20
4660
0
VERTEX
8
0
10
7837
20
4660
0
SEQEND
0
POLYLINE
8
0
62
3
66
1
40
1
41
1
0
VERTEX
8
0
10
7929
20
4571
0
VERTEX
8
0
10
7837
20
4571
0
SEQEND
0
POLYLINE
8
0
62
3
66
1
40
1
41
1
0
VERTEX
8
0
10
7929
20
4482
0
VERTEX
8
0
10
7837
20
4482
0
SEQEND
0
POLYLINE
8
0
62
3
66
1
40
1
41
1
0
VERTEX
8
0
10
7929
20
4525
0
VERTEX
8
0
10
7837
20
4525
0
SEQEND
0
POLYLINE
8
0
62
4
66
1
40
1
41
1
0
VERTEX
8
0
10
7837
20
4525
0
VERTEX
8
0
10
7749
20
4525
0
SEQEND
0
POLYLINE
8
0
62
4
66
1
40
1
41
1
0
VERTEX
8
0
10
7837
20
4706
0
VERTEX
8
0
10
7749
20
4706
0
SEQEND
0
POLYLINE
8
0
62
3
66
1
40
1
41
1
0
VERTEX
8
0
10
7929
20
4390
0
VERTEX
8
0
10
7837
20
4390
0
SEQEND
0
POLYLINE
8
0
62
3
66
1
40
1
41
1
0
VERTEX
8
0
10
7929
20
4436
0
VERTEX
8
0
10
7837
20
4436
0
SEQEND
0
POLYLINE
8
0
62
3
66
1
40
1
41
1
0
VERTEX
8
0
10
7837
20
4209
0
VERTEX
8
0
10
7929
20
4209
0
VERTEX
8
0
10
7929
20
4255
0
VERTEX
8
0
10
7837
20
4255
0
SEQEND
0
POLYLINE
8
0
62
3
66
1
40
1
41
1
0
VERTEX
8
0
10
7929
20
4255
0
VERTEX
8
0
10
7929
20
4302
0
VERTEX
8
0
10
7837
20
4302
0
SEQEND
0
POLYLINE
8
0
62
4
66
1
40
1
41
1
0
VERTEX
8
0
10
7749
20
4344
0
VERTEX
8
0
10
7929
20
4344
0
SEQEND
0
POLYLINE
8
0
62
3
66
1
40
1
41
1
0
VERTEX
8
0
10
7929
20
4344
0
VERTEX
8
0
10
7929
20
4302
0
SEQEND
0
POLYLINE
8
0
62
6
66
1
40
1
41
1
0
VERTEX
8
0
10
7569
20
4344
0
VERTEX
8
0
10
7749
20
4344
0
SEQEND
0
POLYLINE
8
0
62
5
66
1
40
20
41
20
0
VERTEX
8
0
10
7365
20
3876
0
VERTEX
8
0
10
7365
20
3496
0
SEQEND
0
POLYLINE
8
0
62
3
66
1
40
1
41
1
0
VERTEX
8
0
10
7929
20
4209
0
VERTEX
8
0
10
7929
20
4167
0
VERTEX
8
0
10
7929
20
4121
0
VERTEX
8
0
10
7929
20
4075
0
VERTEX
8
0
10
7929
20
4033
0
VERTEX
8
0
10
7929
20
3986
0
VERTEX
8
0
10
7929
20
3940
0
VERTEX
8
0
10
7929
20
3897
0
VERTEX
8
0
10
7929
20
3876
0
VERTEX
8
0
10
7929
20
3851
0
VERTEX
8
0
10
7929
20
3805
0
VERTEX
8
0
10
7929
20
3763
0
VERTEX
8
0
10
7929
20
3717
0
VERTEX
8
0
10
7929
20
3671
0
VERTEX
8
0
10
7929
20
3628
0
VERTEX
8
0
10
7929
20
3583
0
VERTEX
8
0
10
7929
20
3536
0
VERTEX
8
0
10
7929
20
3496
0
SEQEND
0
POLYLINE
8
0
62
3
66
1
40
1
41
1
0
VERTEX
8
0
10
7929
20
4121
0
VERTEX
8
0
10
7837
20
4121
0
SEQEND
0
POLYLINE
8
0
62
3
66
1
40
1
41
1
0
VERTEX
8
0
10
7929
20
4167
0
VERTEX
8
0
10
7837
20
4167
0
SEQEND
0
POLYLINE
8
0
62
3
66
1
40
1
41
1
0
VERTEX
8
0
10
7929
20
4075
0
VERTEX
8
0
10
7837
20
4075
0
SEQEND
0
POLYLINE
8
0
62
3
66
1
40
1
41
1
0
VERTEX
8
0
10
7929
20
4033
0
VERTEX
8
0
10
7837
20
4033
0
SEQEND
0
POLYLINE
8
0
62
3
66
1
40
1
41
1
0
VERTEX
8
0
10
7929
20
3986
0
VERTEX
8
0
10
7837
20
3986
0
SEQEND
0
POLYLINE
8
0
62
4
66
1
40
1
41
1
0
VERTEX
8
0
10
7837
20
3986
0
VERTEX
8
0
10
7749
20
3986
0
SEQEND
0
POLYLINE
8
0
62
4
66
1
40
1
41
1
0
VERTEX
8
0
10
7837
20
4167
0
VERTEX
8
0
10
7749
20
4167
0
SEQEND
0
POLYLINE
8
0
62
3
66
1
40
1
41
1
0
VERTEX
8
0
10
7929
20
3851
0
VERTEX
8
0
10
7837
20
3851
0
SEQEND
0
POLYLINE
8
0
62
3
66
1
40
1
41
1
0
VERTEX
8
0
10
7929
20
3940
0
VERTEX
8
0
10
7837
20
3940
0
SEQEND
0
POLYLINE
8
0
62
3
66
1
40
1
41
1
0
VERTEX
8
0
10
7929
20
3897
0
VERTEX
8
0
10
7837
20
3897
0
SEQEND
0
POLYLINE
8
0
62
3
66
1
40
1
41
1
0
VERTEX
8
0
10
7929
20
3763
0
VERTEX
8
0
10
7837
20
3763
0
SEQEND
0
POLYLINE
8
0
62
3
66
1
40
1
41
1
0
VERTEX
8
0
10
7929
20
3805
0
VERTEX
8
0
10
7837
20
3805
0
SEQEND
0
POLYLINE
8
0
62
4
66
1
40
1
41
1
0
VERTEX
8
0
10
7837
20
3805
0
VERTEX
8
0
10
7749
20
3805
0
SEQEND
0
POLYLINE
8
0
62
3
66
1
40
1
41
1
0
VERTEX
8
0
10
7929
20
3628
0
VERTEX
8
0
10
7837
20
3628
0
SEQEND
0
POLYLINE
8
0
62
3
66
1
40
1
41
1
0
VERTEX
8
0
10
7929
20
3671
0
VERTEX
8
0
10
7837
20
3671
0
SEQEND
0
POLYLINE
8
0
62
3
66
1
40
1
41
1
0
VERTEX
8
0
10
7929
20
3717
0
VERTEX
8
0
10
7837
20
3717
0
SEQEND
0
POLYLINE
8
0
62
3
66
1
40
1
41
1
0
VERTEX
8
0
10
7929
20
3583
0
VERTEX
8
0
10
7837
20
3583
0
SEQEND
0
POLYLINE
8
0
62
3
66
1
40
1
41
1
0
VERTEX
8
0
10
7929
20
3536
0
VERTEX
8
0
10
7837
20
3536
0
SEQEND
0
POLYLINE
8
0
62
3
66
1
40
1
41
1
0
VERTEX
8
0
10
7837
20
3496
0
VERTEX
8
0
10
7929
20
3496
0
SEQEND
0
POLYLINE
8
0
62
4
66
1
40
1
41
1
0
VERTEX
8
0
10
7837
20
3628
0
VERTEX
8
0
10
7749
20
3628
0
SEQEND
0
POLYLINE
8
0
62
3
66
1
40
1
41
1
0
VERTEX
8
0
10
7929
20
3447
0
VERTEX
8
0
10
7837
20
3447
0
SEQEND
0
POLYLINE
8
0
62
5
66
1
40
20
41
20
0
VERTEX
8
0
10
7929
20
3496
0
VERTEX
8
0
10
7929
20
3447
0
VERTEX
8
0
10
7929
20
3401
0
VERTEX
8
0
10
7929
20
3355
0
VERTEX
8
0
10
7929
20
3312
0
VERTEX
8
0
10
7929
20
3267
0
VERTEX
8
0
10
7929
20
3221
0
VERTEX
8
0
10
7929
20
3178
0
VERTEX
8
0
10
7929
20
3132
0
VERTEX
8
0
10
7929
20
3086
0
VERTEX
8
0
10
7929
20
3043
0
VERTEX
8
0
10
7929
20
2996
0
VERTEX
8
0
10
7929
20
2951
0
VERTEX
8
0
10
7929
20
2908
0
VERTEX
8
0
10
7929
20
2862
0
VERTEX
8
0
10
7929
20
2816
0
VERTEX
8
0
10
7929
20
2770
0
VERTEX
8
0
10
7929
20
2728
0
VERTEX
8
0
10
7929
20
2682
0
VERTEX
8
0
10
7929
20
2636
0
VERTEX
8
0
10
7929
20
2593
0
VERTEX
8
0
10
7929
20
2547
0
VERTEX
8
0
10
7929
20
2501
0
VERTEX
8
0
10
7929
20
2458
0
VERTEX
8
0
10
7929
20
2412
0
VERTEX
8
0
10
7929
20
2366
0
VERTEX
8
0
10
7929
20
2323
0
VERTEX
8
0
10
7929
20
2277
0
VERTEX
8
0
10
7929
20
2231
0
VERTEX
8
0
10
7929
20
2189
0
VERTEX
8
0
10
7929
20
2143
0
VERTEX
8
0
10
7929
20
2097
0
VERTEX
8
0
10
7929
20
2055
0
VERTEX
8
0
10
7929
20
2008
0
VERTEX
8
0
10
7929
20
1962
0
VERTEX
8
0
10
7929
20
1915
0
VERTEX
8
0
10
7929
20
1873
0
VERTEX
8
0
10
7929
20
1827
0
VERTEX
8
0
10
7929
20
1781
0
VERTEX
8
0
10
7929
20
1738
0
VERTEX
8
0
10
7929
20
1693
0
VERTEX
8
0
10
7929
20
1647
0
VERTEX
8
0
10
7929
20
1604
0
VERTEX
8
0
10
7929
20
1558
0
VERTEX
8
0
10
7929
20
1511
0
VERTEX
8
0
10
7929
20
1469
0
VERTEX
8
0
10
7929
20
1422
0
VERTEX
8
0
10
7929
20
1377
0
VERTEX
8
0
10
7929
20
1334
0
VERTEX
8
0
10
7929
20
1288
0
VERTEX
8
0
10
7929
20
1242
0
VERTEX
8
0
10
7929
20
1196
0
VERTEX
8
0
10
7929
20
1154
0
VERTEX
8
0
10
7929
20
1108
0
VERTEX
8
0
10
7929
20
1062
0
VERTEX
8
0
10
7929
20
1018
0
VERTEX
8
0
10
7929
20
972
0
VERTEX
8
0
10
7929
20
927
0
VERTEX
8
0
10
7929
20
884
0
VERTEX
8
0
10
7929
20
838
0
VERTEX
8
0
10
7929
20
792
0
VERTEX
8
0
10
7929
20
750
0
VERTEX
8
0
10
7929
20
703
0
VERTEX
8
0
10
7929
20
657
0
VERTEX
8
0
10
7929
20
615
0
VERTEX
8
0
10
7929
20
569
0
VERTEX
8
0
10
7929
20
522
0
VERTEX
8
0
10
7929
20
480
0
VERTEX
8
0
10
7929
20
434
0
VERTEX
8
0
10
7929
20
388
0
VERTEX
8
0
10
7929
20
341
0
VERTEX
8
0
10
7929
20
299
0
VERTEX
8
0
10
7929
20
253
0
VERTEX
8
0
10
7929
20
207
0
VERTEX
8
0
10
7929
20
165
0
VERTEX
8
0
10
7929
20
119
0
VERTEX
8
0
10
7929
20
73
0
VERTEX
8
0
10
7929
20
30
0
SEQEND
0
POLYLINE
8
0
62
3
66
1
40
1
41
1
0
VERTEX
8
0
10
7929
20
3355
0
VERTEX
8
0
10
7837
20
3355
0
SEQEND
0
POLYLINE
8
0
62
3
66
1
40
1
41
1
0
VERTEX
8
0
10
7929
20
3401
0
VERTEX
8
0
10
7837
20
3401
0
SEQEND
0
POLYLINE
8
0
62
3
66
1
40
1
41
1
0
VERTEX
8
0
10
7929
20
3312
0
VERTEX
8
0
10
7837
20
3312
0
SEQEND
0
POLYLINE
8
0
62
3
66
1
40
1
41
1
0
VERTEX
8
0
10
7929
20
3267
0
VERTEX
8
0
10
7837
20
3267
0
SEQEND
0
POLYLINE
8
0
62
4
66
1
40
1
41
1
0
VERTEX
8
0
10
7837
20
3267
0
VERTEX
8
0
10
7749
20
3267
0
SEQEND
0
POLYLINE
8
0
62
4
66
1
40
1
41
1
0
VERTEX
8
0
10
7837
20
3447
0
VERTEX
8
0
10
7749
20
3447
0
SEQEND
0
POLYLINE
8
0
62
5
66
1
40
1
41
1
0
VERTEX
8
0
10
7749
20
3628
0
VERTEX
8
0
10
7658
20
3628
0
SEQEND
0
POLYLINE
8
0
62
5
66
1
40
20
41
20
0
VERTEX
8
0
10
7365
20
4344
0
VERTEX
8
0
10
7365
20
3876
0
SEQEND
0
POLYLINE
8
0
62
7
66
1
40
1
41
1
0
VERTEX
8
0
10
7365
20
3876
0
VERTEX
8
0
10
7929
20
3876
0
SEQEND
0
POLYLINE
8
0
62
7
66
1
40
1
41
1
0
VERTEX
8
0
10
7365
20
3496
0
VERTEX
8
0
10
7837
20
3496
0
SEQEND
0
POLYLINE
8
0
62
1
66
1
40
1
41
1
0
VERTEX
8
0
10
7365
20
4344
0
VERTEX
8
0
10
7569
20
4344
0
SEQEND
0
POLYLINE
8
0
62
4
66
1
40
1
41
1
0
VERTEX
8
0
10
9066
20
4886
0
VERTEX
8
0
10
8978
20
4886
0
SEQEND
0
POLYLINE
8
0
62
5
66
1
40
1
41
1
0
VERTEX
8
0
10
8978
20
5064
0
VERTEX
8
0
10
8890
20
5064
0
SEQEND
0
POLYLINE
8
0
62
4
66
1
40
1
41
1
0
VERTEX
8
0
10
9066
20
5064
0
VERTEX
8
0
10
8978
20
5064
0
SEQEND
0
POLYLINE
8
0
62
6
66
1
40
1
41
1
0
VERTEX
8
0
10
8890
20
4344
0
VERTEX
8
0
10
8798
20
4344
0
SEQEND
0
POLYLINE
8
0
62
5
66
1
40
1
41
1
0
VERTEX
8
0
10
8978
20
4344
0
VERTEX
8
0
10
8890
20
4344
0
SEQEND
0
POLYLINE
8
0
62
4
66
1
40
1
41
1
0
VERTEX
8
0
10
9066
20
4344
0
VERTEX
8
0
10
8978
20
4344
0
SEQEND
0
POLYLINE
8
0
62
4
66
1
40
1
41
1
0
VERTEX
8
0
10
9066
20
4525
0
VERTEX
8
0
10
8978
20
4525
0
SEQEND
0
POLYLINE
8
0
62
4
66
1
40
1
41
1
0
VERTEX
8
0
10
9066
20
4706
0
VERTEX
8
0
10
8978
20
4706
0
SEQEND
0
POLYLINE
8
0
62
1
66
1
40
1
41
1
0
VERTEX
8
0
10
8798
20
4344
0
VERTEX
8
0
10
8593
20
4344
0
SEQEND
0
POLYLINE
8
0
62
5
66
1
40
1
41
1
0
VERTEX
8
0
10
8978
20
3628
0
VERTEX
8
0
10
8890
20
3628
0
SEQEND
0
POLYLINE
8
0
62
7
66
1
40
1
41
1
0
VERTEX
8
0
10
9066
20
3496
0
VERTEX
8
0
10
8593
20
3496
0
SEQEND
0
POLYLINE
8
0
62
5
66
1
40
20
41
20
0
VERTEX
8
0
10
8593
20
30
0
VERTEX
8
0
10
8593
20
3496
0
VERTEX
8
0
10
8593
20
3876
0
VERTEX
8
0
10
8593
20
4344
0
VERTEX
8
0
10
8593
20
14419
0
SEQEND
0
POLYLINE
8
0
62
5
66
1
40
20
41
20
0
VERTEX
8
0
10
9880
20
3876
0
VERTEX
8
0
10
9880
20
3496
0
SEQEND
0
POLYLINE
8
0
62
7
66
1
40
1
41
1
0
VERTEX
8
0
10
9157
20
3876
0
VERTEX
8
0
10
8593
20
3876
0
SEQEND
0
POLYLINE
8
0
62
5
66
1
40
20
41
20
0
VERTEX
8
0
10
9880
20
4344
0
VERTEX
8
0
10
9880
20
3876
0
SEQEND
0
POLYLINE
8
0
62
4
66
1
40
1
41
1
0
VERTEX
8
0
10
9157
20
3717
0
VERTEX
8
0
10
9066
20
3717
0
SEQEND
0
POLYLINE
8
0
62
4
66
1
40
1
41
1
0
VERTEX
8
0
10
9157
20
3496
0
VERTEX
8
0
10
9066
20
3496
0
SEQEND
0
POLYLINE
8
0
62
4
66
1
40
1
41
1
0
VERTEX
8
0
10
9157
20
3536
0
VERTEX
8
0
10
9066
20
3536
0
SEQEND
0
POLYLINE
8
0
62
4
66
1
40
1
41
1
0
VERTEX
8
0
10
9157
20
3583
0
VERTEX
8
0
10
9066
20
3583
0
SEQEND
0
POLYLINE
8
0
62
4
66
1
40
1
41
1
0
VERTEX
8
0
10
9157
20
3671
0
VERTEX
8
0
10
9066
20
3671
0
SEQEND
0
POLYLINE
8
0
62
4
66
1
40
1
41
1
0
VERTEX
8
0
10
9157
20
3312
0
VERTEX
8
0
10
9066
20
3312
0
SEQEND
0
POLYLINE
8
0
62
4
66
1
40
1
41
1
0
VERTEX
8
0
10
9157
20
3355
0
VERTEX
8
0
10
9066
20
3355
0
SEQEND
0
POLYLINE
8
0
62
4
66
1
40
1
41
1
0
VERTEX
8
0
10
9157
20
3628
0
VERTEX
8
0
10
8978
20
3628
0
SEQEND
0
POLYLINE
8
0
62
4
66
1
40
1
41
1
0
VERTEX
8
0
10
9157
20
3447
0
VERTEX
8
0
10
8978
20
3447
0
SEQEND
0
POLYLINE
8
0
62
4
66
1
40
1
41
1
0
VERTEX
8
0
10
9157
20
3267
0
VERTEX
8
0
10
8978
20
3267
0
SEQEND
0
POLYLINE
8
0
62
4
66
1
40
1
41
1
0
VERTEX
8
0
10
9157
20
3401
0
VERTEX
8
0
10
9066
20
3401
0
SEQEND
0
POLYLINE
8
0
62
4
66
1
40
1
41
1
0
VERTEX
8
0
10
9157
20
4121
0
VERTEX
8
0
10
9066
20
4121
0
SEQEND
0
POLYLINE
8
0
62
4
66
1
40
1
41
1
0
VERTEX
8
0
10
9157
20
4075
0
VERTEX
8
0
10
9066
20
4075
0
SEQEND
0
POLYLINE
8
0
62
4
66
1
40
1
41
1
0
VERTEX
8
0
10
9157
20
4033
0
VERTEX
8
0
10
9066
20
4033
0
SEQEND
0
POLYLINE
8
0
62
4
66
1
40
1
41
1
0
VERTEX
8
0
10
9157
20
4209
0
VERTEX
8
0
10
9066
20
4209
0
SEQEND
0
POLYLINE
8
0
62
4
66
1
40
1
41
1
0
VERTEX
8
0
10
9157
20
3986
0
VERTEX
8
0
10
8978
20
3986
0
SEQEND
0
POLYLINE
8
0
62
4
66
1
40
1
41
1
0
VERTEX
8
0
10
9157
20
3805
0
VERTEX
8
0
10
8978
20
3805
0
SEQEND
0
POLYLINE
8
0
62
4
66
1
40
1
41
1
0
VERTEX
8
0
10
9157
20
4167
0
VERTEX
8
0
10
8978
20
4167
0
SEQEND
0
POLYLINE
8
0
62
4
66
1
40
1
41
1
0
VERTEX
8
0
10
9157
20
3897
0
VERTEX
8
0
10
9066
20
3897
0
SEQEND
0
POLYLINE
8
0
62
4
66
1
40
1
41
1
0
VERTEX
8
0
10
9157
20
3940
0
VERTEX
8
0
10
9066
20
3940
0
SEQEND
0
POLYLINE
8
0
62
4
66
1
40
1
41
1
0
VERTEX
8
0
10
9157
20
3763
0
VERTEX
8
0
10
9066
20
3763
0
SEQEND
0
POLYLINE
8
0
62
4
66
1
40
1
41
1
0
VERTEX
8
0
10
9157
20
3851
0
VERTEX
8
0
10
9066
20
3851
0
SEQEND
0
POLYLINE
8
0
62
3
66
1
40
1
41
1
0
VERTEX
8
0
10
9157
20
4525
0
VERTEX
8
0
10
9066
20
4525
0
SEQEND
0
POLYLINE
8
0
62
3
66
1
40
1
41
1
0
VERTEX
8
0
10
9157
20
4706
0
VERTEX
8
0
10
9066
20
4706
0
SEQEND
0
POLYLINE
8
0
62
3
66
1
40
1
41
1
0
VERTEX
8
0
10
9157
20
4660
0
VERTEX
8
0
10
9066
20
4660
0
SEQEND
0
POLYLINE
8
0
62
3
66
1
40
1
41
1
0
VERTEX
8
0
10
9157
20
4617
0
VERTEX
8
0
10
9066
20
4617
0
SEQEND
0
POLYLINE
8
0
62
3
66
1
40
1
41
1
0
VERTEX
8
0
10
9157
20
4571
0
VERTEX
8
0
10
9066
20
4571
0
SEQEND
0
POLYLINE
8
0
62
3
66
1
40
1
41
1
0
VERTEX
8
0
10
9157
20
4482
0
VERTEX
8
0
10
9066
20
4482
0
SEQEND
0
POLYLINE
8
0
62
3
66
1
40
1
41
1
0
VERTEX
8
0
10
9157
20
4390
0
VERTEX
8
0
10
9066
20
4390
0
SEQEND
0
POLYLINE
8
0
62
4
66
1
40
1
41
1
0
VERTEX
8
0
10
9157
20
4255
0
VERTEX
8
0
10
9066
20
4255
0
SEQEND
0
POLYLINE
8
0
62
3
66
1
40
1
41
1
0
VERTEX
8
0
10
9157
20
4344
0
VERTEX
8
0
10
9066
20
4344
0
SEQEND
0
POLYLINE
8
0
62
4
66
1
40
1
41
1
0
VERTEX
8
0
10
9157
20
4302
0
VERTEX
8
0
10
9066
20
4302
0
SEQEND
0
POLYLINE
8
0
62
3
66
1
40
1
41
1
0
VERTEX
8
0
10
9157
20
4436
0
VERTEX
8
0
10
9066
20
4436
0
SEQEND
0
POLYLINE
8
0
62
3
66
1
40
1
41
1
0
VERTEX
8
0
10
9157
20
4974
0
VERTEX
8
0
10
9066
20
4974
0
SEQEND
0
POLYLINE
8
0
62
3
66
1
40
1
41
1
0
VERTEX
8
0
10
9157
20
5110
0
VERTEX
8
0
10
9066
20
5110
0
SEQEND
0
POLYLINE
8
0
62
3
66
1
40
1
41
1
0
VERTEX
8
0
10
9157
20
5156
0
VERTEX
8
0
10
9066
20
5156
0
SEQEND
0
POLYLINE
8
0
62
3
66
1
40
1
41
1
0
VERTEX
8
0
10
9157
20
5202
0
VERTEX
8
0
10
9066
20
5202
0
SEQEND
0
POLYLINE
8
0
62
3
66
1
40
1
41
1
0
VERTEX
8
0
10
9157
20
5064
0
VERTEX
8
0
10
9066
20
5064
0
SEQEND
0
POLYLINE
8
0
62
3
66
1
40
1
41
1
0
VERTEX
8
0
10
9157
20
5022
0
VERTEX
8
0
10
9066
20
5022
0
SEQEND
0
POLYLINE
8
0
62
3
66
1
40
1
41
1
0
VERTEX
8
0
10
9157
20
4840
0
VERTEX
8
0
10
9066
20
4840
0
SEQEND
0
POLYLINE
8
0
62
3
66
1
40
1
41
1
0
VERTEX
8
0
10
9157
20
4929
0
VERTEX
8
0
10
9066
20
4929
0
SEQEND
0
POLYLINE
8
0
62
3
66
1
40
1
41
1
0
VERTEX
8
0
10
9157
20
4794
0
VERTEX
8
0
10
9066
20
4794
0
SEQEND
0
POLYLINE
8
0
62
3
66
1
40
1
41
1
0
VERTEX
8
0
10
9157
20
4752
0
VERTEX
8
0
10
9066
20
4752
0
SEQEND
0
POLYLINE
8
0
62
3
66
1
40
1
41
1
0
VERTEX
8
0
10
9157
20
4886
0
VERTEX
8
0
10
9066
20
4886
0
SEQEND
0
POLYLINE
8
0
62
5
66
1
40
1
41
1
0
VERTEX
8
0
10
8978
20
2908
0
VERTEX
8
0
10
8890
20
2908
0
SEQEND
0
POLYLINE
8
0
62
6
66
1
40
1
41
1
0
VERTEX
8
0
10
8890
20
2908
0
VERTEX
8
0
10
8798
20
2908
0
SEQEND
0
POLYLINE
8
0
62
5
66
1
40
1
41
1
0
VERTEX
8
0
10
8978
20
2189
0
VERTEX
8
0
10
8890
20
2189
0
SEQEND
0
POLYLINE
8
0
62
5
66
1
40
1
41
1
0
VERTEX
8
0
10
8978
20
1469
0
VERTEX
8
0
10
8890
20
1469
0
SEQEND
0
POLYLINE
8
0
62
6
66
1
40
1
41
1
0
VERTEX
8
0
10
8890
20
1469
0
VERTEX
8
0
10
8798
20
1469
0
SEQEND
0
POLYLINE
8
0
62
4
66
1
40
1
41
1
0
VERTEX
8
0
10
9157
20
1693
0
VERTEX
8
0
10
9066
20
1693
0
SEQEND
0
POLYLINE
8
0
62
4
66
1
40
1
41
1
0
VERTEX
8
0
10
9157
20
1604
0
VERTEX
8
0
10
9066
20
1604
0
SEQEND
0
POLYLINE
8
0
62
4
66
1
40
1
41
1
0
VERTEX
8
0
10
9157
20
1511
0
VERTEX
8
0
10
9066
20
1511
0
SEQEND
0
POLYLINE
8
0
62
4
66
1
40
1
41
1
0
VERTEX
8
0
10
9157
20
1558
0
VERTEX
8
0
10
9066
20
1558
0
SEQEND
0
POLYLINE
8
0
62
4
66
1
40
1
41
1
0
VERTEX
8
0
10
9157
20
1377
0
VERTEX
8
0
10
9066
20
1377
0
SEQEND
0
POLYLINE
8
0
62
4
66
1
40
1
41
1
0
VERTEX
8
0
10
9157
20
1334
0
VERTEX
8
0
10
9066
20
1334
0
SEQEND
0
POLYLINE
8
0
62
4
66
1
40
1
41
1
0
VERTEX
8
0
10
9157
20
1242
0
VERTEX
8
0
10
9066
20
1242
0
SEQEND
0
POLYLINE
8
0
62
4
66
1
40
1
41
1
0
VERTEX
8
0
10
9157
20
1647
0
VERTEX
8
0
10
8978
20
1647
0
SEQEND
0
POLYLINE
8
0
62
4
66
1
40
1
41
1
0
VERTEX
8
0
10
9157
20
1469
0
VERTEX
8
0
10
8978
20
1469
0
SEQEND
0
POLYLINE
8
0
62
4
66
1
40
1
41
1
0
VERTEX
8
0
10
9157
20
1288
0
VERTEX
8
0
10
8978
20
1288
0
SEQEND
0
POLYLINE
8
0
62
4
66
1
40
1
41
1
0
VERTEX
8
0
10
9157
20
1422
0
VERTEX
8
0
10
9066
20
1422
0
SEQEND
0
POLYLINE
8
0
62
4
66
1
40
1
41
1
0
VERTEX
8
0
10
9157
20
2097
0
VERTEX
8
0
10
9066
20
2097
0
SEQEND
0
POLYLINE
8
0
62
4
66
1
40
1
41
1
0
VERTEX
8
0
10
9157
20
2143
0
VERTEX
8
0
10
9066
20
2143
0
SEQEND
0
POLYLINE
8
0
62
4
66
1
40
1
41
1
0
VERTEX
8
0
10
9157
20
2231
0
VERTEX
8
0
10
9066
20
2231
0
SEQEND
0
POLYLINE
8
0
62
4
66
1
40
1
41
1
0
VERTEX
8
0
10
9157
20
2055
0
VERTEX
8
0
10
9066
20
2055
0
SEQEND
0
POLYLINE
8
0
62
4
66
1
40
1
41
1
0
VERTEX
8
0
10
9157
20
1827
0
VERTEX
8
0
10
8978
20
1827
0
SEQEND
0
POLYLINE
8
0
62
4
66
1
40
1
41
1
0
VERTEX
8
0
10
9157
20
2008
0
VERTEX
8
0
10
8978
20
2008
0
SEQEND
0
POLYLINE
8
0
62
4
66
1
40
1
41
1
0
VERTEX
8
0
10
9157
20
2189
0
VERTEX
8
0
10
8978
20
2189
0
SEQEND
0
POLYLINE
8
0
62
4
66
1
40
1
41
1
0
VERTEX
8
0
10
9157
20
1962
0
VERTEX
8
0
10
9066
20
1962
0
SEQEND
0
POLYLINE
8
0
62
4
66
1
40
1
41
1
0
VERTEX
8
0
10
9157
20
1915
0
VERTEX
8
0
10
9066
20
1915
0
SEQEND
0
POLYLINE
8
0
62
4
66
1
40
1
41
1
0
VERTEX
8
0
10
9157
20
1873
0
VERTEX
8
0
10
9066
20
1873
0
SEQEND
0
POLYLINE
8
0
62
4
66
1
40
1
41
1
0
VERTEX
8
0
10
9157
20
1781
0
VERTEX
8
0
10
9066
20
1781
0
SEQEND
0
POLYLINE
8
0
62
4
66
1
40
1
41
1
0
VERTEX
8
0
10
9157
20
1738
0
VERTEX
8
0
10
9066
20
1738
0
SEQEND
0
POLYLINE
8
0
62
4
66
1
40
1
41
1
0
VERTEX
8
0
10
9157
20
2682
0
VERTEX
8
0
10
9066
20
2682
0
SEQEND
0
POLYLINE
8
0
62
4
66
1
40
1
41
1
0
VERTEX
8
0
10
9157
20
2636
0
VERTEX
8
0
10
9066
20
2636
0
SEQEND
0
POLYLINE
8
0
62
4
66
1
40
1
41
1
0
VERTEX
8
0
10
9157
20
2501
0
VERTEX
8
0
10
9066
20
2501
0
SEQEND
0
POLYLINE
8
0
62
4
66
1
40
1
41
1
0
VERTEX
8
0
10
9157
20
2593
0
VERTEX
8
0
10
9066
20
2593
0
SEQEND
0
POLYLINE
8
0
62
4
66
1
40
1
41
1
0
VERTEX
8
0
10
9157
20
2323
0
VERTEX
8
0
10
9066
20
2323
0
SEQEND
0
POLYLINE
8
0
62
4
66
1
40
1
41
1
0
VERTEX
8
0
10
9157
20
2277
0
VERTEX
8
0
10
9066
20
2277
0
SEQEND
0
POLYLINE
8
0
62
4
66
1
40
1
41
1
0
VERTEX
8
0
10
9157
20
2458
0
VERTEX
8
0
10
9066
20
2458
0
SEQEND
0
POLYLINE
8
0
62
4
66
1
40
1
41
1
0
VERTEX
8
0
10
9157
20
2728
0
VERTEX
8
0
10
8978
20
2728
0
SEQEND
0
POLYLINE
8
0
62
4
66
1
40
1
41
1
0
VERTEX
8
0
10
9157
20
2547
0
VERTEX
8
0
10
8978
20
2547
0
SEQEND
0
POLYLINE
8
0
62
4
66
1
40
1
41
1
0
VERTEX
8
0
10
9157
20
2366
0
VERTEX
8
0
10
8978
20
2366
0
SEQEND
0
POLYLINE
8
0
62
4
66
1
40
1
41
1
0
VERTEX
8
0
10
9157
20
2412
0
VERTEX
8
0
10
9066
20
2412
0
SEQEND
0
POLYLINE
8
0
62
4
66
1
40
1
41
1
0
VERTEX
8
0
10
9157
20
3221
0
VERTEX
8
0
10
9066
20
3221
0
SEQEND
0
POLYLINE
8
0
62
4
66
1
40
1
41
1
0
VERTEX
8
0
10
9157
20
3178
0
VERTEX
8
0
10
9066
20
3178
0
SEQEND
0
POLYLINE
8
0
62
4
66
1
40
1
41
1
0
VERTEX
8
0
10
9157
20
2996
0
VERTEX
8
0
10
9066
20
2996
0
SEQEND
0
POLYLINE
8
0
62
4
66
1
40
1
41
1
0
VERTEX
8
0
10
9157
20
3043
0
VERTEX
8
0
10
9066
20
3043
0
SEQEND
0
POLYLINE
8
0
62
4
66
1
40
1
41
1
0
VERTEX
8
0
10
9157
20
3132
0
VERTEX
8
0
10
9066
20
3132
0
SEQEND
0
POLYLINE
8
0
62
4
66
1
40
1
41
1
0
VERTEX
8
0
10
9157
20
2770
0
VERTEX
8
0
10
9066
20
2770
0
SEQEND
0
POLYLINE
8
0
62
4
66
1
40
1
41
1
0
VERTEX
8
0
10
9157
20
2816
0
VERTEX
8
0
10
9066
20
2816
0
SEQEND
0
POLYLINE
8
0
62
4
66
1
40
1
41
1
0
VERTEX
8
0
10
9157
20
2908
0
VERTEX
8
0
10
8978
20
2908
0
SEQEND
0
POLYLINE
8
0
62
4
66
1
40
1
41
1
0
VERTEX
8
0
10
9157
20
3086
0
VERTEX
8
0
10
8978
20
3086
0
SEQEND
0
POLYLINE
8
0
62
4
66
1
40
1
41
1
0
VERTEX
8
0
10
9157
20
2951
0
VERTEX
8
0
10
9066
20
2951
0
SEQEND
0
POLYLINE
8
0
62
4
66
1
40
1
41
1
0
VERTEX
8
0
10
9157
20
2862
0
VERTEX
8
0
10
9066
20
2862
0
SEQEND
0
POLYLINE
8
0
62
3
66
1
40
1
41
1
0
VERTEX
8
0
10
7929
20
3178
0
VERTEX
8
0
10
7837
20
3178
0
SEQEND
0
POLYLINE
8
0
62
3
66
1
40
1
41
1
0
VERTEX
8
0
10
7929
20
3221
0
VERTEX
8
0
10
7837
20
3221
0
SEQEND
0
POLYLINE
8
0
62
3
66
1
40
1
41
1
0
VERTEX
8
0
10
7929
20
3132
0
VERTEX
8
0
10
7837
20
3132
0
SEQEND
0
POLYLINE
8
0
62
3
66
1
40
1
41
1
0
VERTEX
8
0
10
7929
20
2996
0
VERTEX
8
0
10
7837
20
2996
0
SEQEND
0
POLYLINE
8
0
62
3
66
1
40
1
41
1
0
VERTEX
8
0
10
7929
20
3086
0
VERTEX
8
0
10
7837
20
3086
0
SEQEND
0
POLYLINE
8
0
62
3
66
1
40
1
41
1
0
VERTEX
8
0
10
7929
20
3043
0
VERTEX
8
0
10
7837
20
3043
0
SEQEND
0
POLYLINE
8
0
62
4
66
1
40
1
41
1
0
VERTEX
8
0
10
7837
20
3086
0
VERTEX
8
0
10
7749
20
3086
0
SEQEND
0
POLYLINE
8
0
62
6
66
1
40
1
41
1
0
VERTEX
8
0
10
7658
20
2908
0
VERTEX
8
0
10
7569
20
2908
0
SEQEND
0
POLYLINE
8
0
62
3
66
1
40
1
41
1
0
VERTEX
8
0
10
7929
20
2951
0
VERTEX
8
0
10
7837
20
2951
0
SEQEND
0
POLYLINE
8
0
62
3
66
1
40
1
41
1
0
VERTEX
8
0
10
7929
20
2862
0
VERTEX
8
0
10
7837
20
2862
0
SEQEND
0
POLYLINE
8
0
62
3
66
1
40
1
41
1
0
VERTEX
8
0
10
7929
20
2908
0
VERTEX
8
0
10
7837
20
2908
0
SEQEND
0
POLYLINE
8
0
62
3
66
1
40
1
41
1
0
VERTEX
8
0
10
7929
20
2816
0
VERTEX
8
0
10
7837
20
2816
0
SEQEND
0
POLYLINE
8
0
62
3
66
1
40
1
41
1
0
VERTEX
8
0
10
7929
20
2770
0
VERTEX
8
0
10
7837
20
2770
0
SEQEND
0
POLYLINE
8
0
62
4
66
1
40
1
41
1
0
VERTEX
8
0
10
7837
20
2908
0
VERTEX
8
0
10
7749
20
2908
0
SEQEND
0
POLYLINE
8
0
62
5
66
1
40
1
41
1
0
VERTEX
8
0
10
7749
20
2908
0
VERTEX
8
0
10
7658
20
2908
0
SEQEND
0
POLYLINE
8
0
62
3
66
1
40
1
41
1
0
VERTEX
8
0
10
7929
20
2636
0
VERTEX
8
0
10
7837
20
2636
0
SEQEND
0
POLYLINE
8
0
62
3
66
1
40
1
41
1
0
VERTEX
8
0
10
7929
20
2682
0
VERTEX
8
0
10
7837
20
2682
0
SEQEND
0
POLYLINE
8
0
62
3
66
1
40
1
41
1
0
VERTEX
8
0
10
7929
20
2728
0
VERTEX
8
0
10
7837
20
2728
0
SEQEND
0
POLYLINE
8
0
62
3
66
1
40
1
41
1
0
VERTEX
8
0
10
7929
20
2501
0
VERTEX
8
0
10
7837
20
2501
0
SEQEND
0
POLYLINE
8
0
62
3
66
1
40
1
41
1
0
VERTEX
8
0
10
7929
20
2547
0
VERTEX
8
0
10
7837
20
2547
0
SEQEND
0
POLYLINE
8
0
62
3
66
1
40
1
41
1
0
VERTEX
8
0
10
7929
20
2593
0
VERTEX
8
0
10
7837
20
2593
0
SEQEND
0
POLYLINE
8
0
62
4
66
1
40
1
41
1
0
VERTEX
8
0
10
7837
20
2547
0
VERTEX
8
0
10
7749
20
2547
0
SEQEND
0
POLYLINE
8
0
62
4
66
1
40
1
41
1
0
VERTEX
8
0
10
7837
20
2728
0
VERTEX
8
0
10
7749
20
2728
0
SEQEND
0
POLYLINE
8
0
62
3
66
1
40
1
41
1
0
VERTEX
8
0
10
7929
20
2366
0
VERTEX
8
0
10
7837
20
2366
0
SEQEND
0
POLYLINE
8
0
62
3
66
1
40
1
41
1
0
VERTEX
8
0
10
7929
20
2412
0
VERTEX
8
0
10
7837
20
2412
0
SEQEND
0
POLYLINE
8
0
62
3
66
1
40
1
41
1
0
VERTEX
8
0
10
7929
20
2458
0
VERTEX
8
0
10
7837
20
2458
0
SEQEND
0
POLYLINE
8
0
62
3
66
1
40
1
41
1
0
VERTEX
8
0
10
7929
20
2323
0
VERTEX
8
0
10
7837
20
2323
0
SEQEND
0
POLYLINE
8
0
62
3
66
1
40
1
41
1
0
VERTEX
8
0
10
7929
20
2277
0
VERTEX
8
0
10
7837
20
2277
0
SEQEND
0
POLYLINE
8
0
62
4
66
1
40
1
41
1
0
VERTEX
8
0
10
7837
20
2366
0
VERTEX
8
0
10
7749
20
2366
0
SEQEND
0
POLYLINE
8
0
62
3
66
1
40
1
41
1
0
VERTEX
8
0
10
7929
20
2143
0
VERTEX
8
0
10
7837
20
2143
0
SEQEND
0
POLYLINE
8
0
62
3
66
1
40
1
41
1
0
VERTEX
8
0
10
7929
20
2189
0
VERTEX
8
0
10
7837
20
2189
0
SEQEND
0
POLYLINE
8
0
62
3
66
1
40
1
41
1
0
VERTEX
8
0
10
7929
20
2231
0
VERTEX
8
0
10
7837
20
2231
0
SEQEND
0
POLYLINE
8
0
62
3
66
1
40
1
41
1
0
VERTEX
8
0
10
7929
20
2008
0
VERTEX
8
0
10
7837
20
2008
0
SEQEND
0
POLYLINE
8
0
62
3
66
1
40
1
41
1
0
VERTEX
8
0
10
7929
20
2097
0
VERTEX
8
0
10
7837
20
2097
0
SEQEND
0
POLYLINE
8
0
62
3
66
1
40
1
41
1
0
VERTEX
8
0
10
7929
20
2055
0
VERTEX
8
0
10
7837
20
2055
0
SEQEND
0
POLYLINE
8
0
62
4
66
1
40
1
41
1
0
VERTEX
8
0
10
7837
20
2008
0
VERTEX
8
0
10
7749
20
2008
0
SEQEND
0
POLYLINE
8
0
62
4
66
1
40
1
41
1
0
VERTEX
8
0
10
7837
20
2189
0
VERTEX
8
0
10
7749
20
2189
0
SEQEND
0
POLYLINE
8
0
62
3
66
1
40
1
41
1
0
VERTEX
8
0
10
7929
20
1962
0
VERTEX
8
0
10
7837
20
1962
0
SEQEND
0
POLYLINE
8
0
62
3
66
1
40
1
41
1
0
VERTEX
8
0
10
7929
20
1915
0
VERTEX
8
0
10
7837
20
1915
0
SEQEND
0
POLYLINE
8
0
62
3
66
1
40
1
41
1
0
VERTEX
8
0
10
7929
20
1873
0
VERTEX
8
0
10
7837
20
1873
0
SEQEND
0
POLYLINE
8
0
62
3
66
1
40
1
41
1
0
VERTEX
8
0
10
7929
20
1738
0
VERTEX
8
0
10
7837
20
1738
0
SEQEND
0
POLYLINE
8
0
62
3
66
1
40
1
41
1
0
VERTEX
8
0
10
7929
20
1827
0
VERTEX
8
0
10
7837
20
1827
0
SEQEND
0
POLYLINE
8
0
62
3
66
1
40
1
41
1
0
VERTEX
8
0
10
7929
20
1781
0
VERTEX
8
0
10
7837
20
1781
0
SEQEND
0
POLYLINE
8
0
62
4
66
1
40
1
41
1
0
VERTEX
8
0
10
7837
20
1827
0
VERTEX
8
0
10
7749
20
1827
0
SEQEND
0
POLYLINE
8
0
62
5
66
1
40
1
41
1
0
VERTEX
8
0
10
7749
20
2189
0
VERTEX
8
0
10
7658
20
2189
0
SEQEND
0
POLYLINE
8
0
62
3
66
1
40
1
41
1
0
VERTEX
8
0
10
7929
20
1693
0
VERTEX
8
0
10
7837
20
1693
0
SEQEND
0
POLYLINE
8
0
62
3
66
1
40
1
41
1
0
VERTEX
8
0
10
7929
20
1647
0
VERTEX
8
0
10
7837
20
1647
0
SEQEND
0
POLYLINE
8
0
62
3
66
1
40
1
41
1
0
VERTEX
8
0
10
7929
20
1558
0
VERTEX
8
0
10
7837
20
1558
0
SEQEND
0
POLYLINE
8
0
62
3
66
1
40
1
41
1
0
VERTEX
8
0
10
7929
20
1604
0
VERTEX
8
0
10
7837
20
1604
0
SEQEND
0
POLYLINE
8
0
62
3
66
1
40
1
41
1
0
VERTEX
8
0
10
7929
20
1511
0
VERTEX
8
0
10
7837
20
1511
0
SEQEND
0
POLYLINE
8
0
62
4
66
1
40
1
41
1
0
VERTEX
8
0
10
7837
20
1647
0
VERTEX
8
0
10
7749
20
1647
0
SEQEND
0
POLYLINE
8
0
62
6
66
1
40
1
41
1
0
VERTEX
8
0
10
7658
20
1469
0
VERTEX
8
0
10
7569
20
1469
0
SEQEND
0
POLYLINE
8
0
62
3
66
1
40
1
41
1
0
VERTEX
8
0
10
7929
20
1469
0
VERTEX
8
0
10
7837
20
1469
0
SEQEND
0
POLYLINE
8
0
62
3
66
1
40
1
41
1
0
VERTEX
8
0
10
7929
20
1377
0
VERTEX
8
0
10
7837
20
1377
0
SEQEND
0
POLYLINE
8
0
62
3
66
1
40
1
41
1
0
VERTEX
8
0
10
7929
20
1422
0
VERTEX
8
0
10
7837
20
1422
0
SEQEND
0
POLYLINE
8
0
62
3
66
1
40
1
41
1
0
VERTEX
8
0
10
7929
20
1334
0
VERTEX
8
0
10
7837
20
1334
0
SEQEND
0
POLYLINE
8
0
62
3
66
1
40
1
41
1
0
VERTEX
8
0
10
7929
20
1242
0
VERTEX
8
0
10
7837
20
1242
0
SEQEND
0
POLYLINE
8
0
62
3
66
1
40
1
41
1
0
VERTEX
8
0
10
7929
20
1288
0
VERTEX
8
0
10
7837
20
1288
0
SEQEND
0
POLYLINE
8
0
62
4
66
1
40
1
41
1
0
VERTEX
8
0
10
7837
20
1288
0
VERTEX
8
0
10
7749
20
1288
0
SEQEND
0
POLYLINE
8
0
62
4
66
1
40
1
41
1
0
VERTEX
8
0
10
7837
20
1469
0
VERTEX
8
0
10
7749
20
1469
0
SEQEND
0
POLYLINE
8
0
62
5
66
1
40
1
41
1
0
VERTEX
8
0
10
7749
20
1469
0
VERTEX
8
0
10
7658
20
1469
0
SEQEND
0
POLYLINE
8
0
62
3
66
1
40
1
41
1
0
VERTEX
8
0
10
7929
20
1154
0
VERTEX
8
0
10
7837
20
1154
0
SEQEND
0
POLYLINE
8
0
62
3
66
1
40
1
41
1
0
VERTEX
8
0
10
7929
20
1196
0
VERTEX
8
0
10
7837
20
1196
0
SEQEND
0
POLYLINE
8
0
62
3
66
1
40
1
41
1
0
VERTEX
8
0
10
7929
20
1062
0
VERTEX
8
0
10
7837
20
1062
0
SEQEND
0
POLYLINE
8
0
62
3
66
1
40
1
41
1
0
VERTEX
8
0
10
7929
20
1018
0
VERTEX
8
0
10
7837
20
1018
0
SEQEND
0
POLYLINE
8
0
62
3
66
1
40
1
41
1
0
VERTEX
8
0
10
7929
20
1108
0
VERTEX
8
0
10
7837
20
1108
0
SEQEND
0
POLYLINE
8
0
62
4
66
1
40
1
41
1
0
VERTEX
8
0
10
7837
20
1108
0
VERTEX
8
0
10
7749
20
1108
0
SEQEND
0
POLYLINE
8
0
62
3
66
1
40
1
41
1
0
VERTEX
8
0
10
7929
20
884
0
VERTEX
8
0
10
7837
20
884
0
SEQEND
0
POLYLINE
8
0
62
3
66
1
40
1
41
1
0
VERTEX
8
0
10
7929
20
927
0
VERTEX
8
0
10
7837
20
927
0
SEQEND
0
POLYLINE
8
0
62
3
66
1
40
1
41
1
0
VERTEX
8
0
10
7929
20
972
0
VERTEX
8
0
10
7837
20
972
0
SEQEND
0
POLYLINE
8
0
62
3
66
1
40
1
41
1
0
VERTEX
8
0
10
7929
20
750
0
VERTEX
8
0
10
7837
20
750
0
SEQEND
0
POLYLINE
8
0
62
3
66
1
40
1
41
1
0
VERTEX
8
0
10
7929
20
838
0
VERTEX
8
0
10
7837
20
838
0
SEQEND
0
POLYLINE
8
0
62
3
66
1
40
1
41
1
0
VERTEX
8
0
10
7929
20
792
0
VERTEX
8
0
10
7837
20
792
0
SEQEND
0
POLYLINE
8
0
62
4
66
1
40
1
41
1
0
VERTEX
8
0
10
7837
20
750
0
VERTEX
8
0
10
7749
20
750
0
SEQEND
0
POLYLINE
8
0
62
4
66
1
40
1
41
1
0
VERTEX
8
0
10
7837
20
927
0
VERTEX
8
0
10
7749
20
927
0
SEQEND
0
POLYLINE
8
0
62
5
66
1
40
1
41
1
0
VERTEX
8
0
10
7749
20
750
0
VERTEX
8
0
10
7658
20
750
0
SEQEND
0
POLYLINE
8
0
62
3
66
1
40
1
41
1
0
VERTEX
8
0
10
7929
20
657
0
VERTEX
8
0
10
7837
20
657
0
SEQEND
0
POLYLINE
8
0
62
3
66
1
40
1
41
1
0
VERTEX
8
0
10
7929
20
703
0
VERTEX
8
0
10
7837
20
703
0
SEQEND
0
POLYLINE
8
0
62
3
66
1
40
1
41
1
0
VERTEX
8
0
10
7929
20
522
0
VERTEX
8
0
10
7837
20
522
0
SEQEND
0
POLYLINE
8
0
62
3
66
1
40
1
41
1
0
VERTEX
8
0
10
7929
20
615
0
VERTEX
8
0
10
7837
20
615
0
SEQEND
0
POLYLINE
8
0
62
3
66
1
40
1
41
1
0
VERTEX
8
0
10
7929
20
569
0
VERTEX
8
0
10
7837
20
569
0
SEQEND
0
POLYLINE
8
0
62
4
66
1
40
1
41
1
0
VERTEX
8
0
10
7837
20
569
0
VERTEX
8
0
10
7749
20
569
0
SEQEND
0
POLYLINE
8
0
62
3
66
1
40
1
41
1
0
VERTEX
8
0
10
7929
20
388
0
VERTEX
8
0
10
7837
20
388
0
SEQEND
0
POLYLINE
8
0
62
3
66
1
40
1
41
1
0
VERTEX
8
0
10
7929
20
434
0
VERTEX
8
0
10
7837
20
434
0
SEQEND
0
POLYLINE
8
0
62
3
66
1
40
1
41
1
0
VERTEX
8
0
10
7929
20
480
0
VERTEX
8
0
10
7837
20
480
0
SEQEND
0
POLYLINE
8
0
62
3
66
1
40
1
41
1
0
VERTEX
8
0
10
7929
20
253
0
VERTEX
8
0
10
7837
20
253
0
SEQEND
0
POLYLINE
8
0
62
3
66
1
40
1
41
1
0
VERTEX
8
0
10
7929
20
341
0
VERTEX
8
0
10
7837
20
341
0
SEQEND
0
POLYLINE
8
0
62
3
66
1
40
1
41
1
0
VERTEX
8
0
10
7929
20
299
0
VERTEX
8
0
10
7837
20
299
0
SEQEND
0
POLYLINE
8
0
62
4
66
1
40
1
41
1
0
VERTEX
8
0
10
7837
20
388
0
VERTEX
8
0
10
7749
20
388
0
SEQEND
0
POLYLINE
8
0
62
3
66
1
40
1
41
1
0
VERTEX
8
0
10
7929
20
207
0
VERTEX
8
0
10
7837
20
207
0
SEQEND
0
POLYLINE
8
0
62
3
66
1
40
1
41
1
0
VERTEX
8
0
10
7929
20
165
0
VERTEX
8
0
10
7837
20
165
0
SEQEND
0
POLYLINE
8
0
62
3
66
1
40
1
41
1
0
VERTEX
8
0
10
7929
20
73
0
VERTEX
8
0
10
7837
20
73
0
SEQEND
0
POLYLINE
8
0
62
3
66
1
40
1
41
1
0
VERTEX
8
0
10
7929
20
119
0
VERTEX
8
0
10
7837
20
119
0
SEQEND
0
POLYLINE
8
0
62
3
66
1
40
1
41
1
0
VERTEX
8
0
10
7929
20
30
0
VERTEX
8
0
10
7837
20
30
0
SEQEND
0
POLYLINE
8
0
62
4
66
1
40
1
41
1
0
VERTEX
8
0
10
7837
20
207
0
VERTEX
8
0
10
7749
20
207
0
SEQEND
0
POLYLINE
8
0
62
4
66
1
40
1
41
1
0
VERTEX
8
0
10
7837
20
30
0
VERTEX
8
0
10
7749
20
30
0
SEQEND
0
POLYLINE
8
0
62
5
66
1
40
1
41
1
0
VERTEX
8
0
10
7749
20
30
0
VERTEX
8
0
10
7658
20
30
0
SEQEND
0
POLYLINE
8
0
62
6
66
1
40
1
41
1
0
VERTEX
8
0
10
7658
20
30
0
VERTEX
8
0
10
7365
20
30
0
SEQEND
0
POLYLINE
8
0
62
5
66
1
40
1
41
1
0
VERTEX
8
0
10
8978
20
750
0
VERTEX
8
0
10
8890
20
750
0
SEQEND
0
POLYLINE
8
0
62
5
66
1
40
1
41
1
0
VERTEX
8
0
10
8978
20
30
0
VERTEX
8
0
10
8890
20
30
0
SEQEND
0
POLYLINE
8
0
62
6
66
1
40
1
41
1
0
VERTEX
8
0
10
8890
20
30
0
VERTEX
8
0
10
8593
20
30
0
SEQEND
0
POLYLINE
8
0
62
4
66
1
40
1
41
1
0
VERTEX
8
0
10
9158
20
73
0
VERTEX
8
0
10
9066
20
73
0
SEQEND
0
POLYLINE
8
0
62
4
66
1
40
1
41
1
0
VERTEX
8
0
10
9158
20
119
0
VERTEX
8
0
10
9066
20
119
0
SEQEND
0
POLYLINE
8
0
62
4
66
1
40
1
41
1
0
VERTEX
8
0
10
9158
20
165
0
VERTEX
8
0
10
9066
20
165
0
SEQEND
0
POLYLINE
8
0
62
4
66
1
40
1
41
1
0
VERTEX
8
0
10
9158
20
207
0
VERTEX
8
0
10
8978
20
207
0
SEQEND
0
POLYLINE
8
0
62
4
66
1
40
1
41
1
0
VERTEX
8
0
10
9157
20
703
0
VERTEX
8
0
10
9066
20
703
0
SEQEND
0
POLYLINE
8
0
62
4
66
1
40
1
41
1
0
VERTEX
8
0
10
9157
20
657
0
VERTEX
8
0
10
9066
20
657
0
SEQEND
0
POLYLINE
8
0
62
4
66
1
40
1
41
1
0
VERTEX
8
0
10
9157
20
522
0
VERTEX
8
0
10
9066
20
522
0
SEQEND
0
POLYLINE
8
0
62
4
66
1
40
1
41
1
0
VERTEX
8
0
10
9157
20
615
0
VERTEX
8
0
10
9066
20
615
0
SEQEND
0
POLYLINE
8
0
62
4
66
1
40
1
41
1
0
VERTEX
8
0
10
9158
20
299
0
VERTEX
8
0
10
9066
20
299
0
SEQEND
0
POLYLINE
8
0
62
4
66
1
40
1
41
1
0
VERTEX
8
0
10
9157
20
341
0
VERTEX
8
0
10
9066
20
341
0
SEQEND
0
POLYLINE
8
0
62
4
66
1
40
1
41
1
0
VERTEX
8
0
10
9157
20
480
0
VERTEX
8
0
10
9066
20
480
0
SEQEND
0
POLYLINE
8
0
62
4
66
1
40
1
41
1
0
VERTEX
8
0
10
9157
20
434
0
VERTEX
8
0
10
9066
20
434
0
SEQEND
0
POLYLINE
8
0
62
4
66
1
40
1
41
1
0
VERTEX
8
0
10
9158
20
253
0
VERTEX
8
0
10
9066
20
253
0
SEQEND
0
POLYLINE
8
0
62
4
66
1
40
1
41
1
0
VERTEX
8
0
10
9157
20
569
0
VERTEX
8
0
10
8978
20
569
0
SEQEND
0
POLYLINE
8
0
62
4
66
1
40
1
41
1
0
VERTEX
8
0
10
9157
20
388
0
VERTEX
8
0
10
8978
20
388
0
SEQEND
0
POLYLINE
8
0
62
4
66
1
40
1
41
1
0
VERTEX
8
0
10
9157
20
1196
0
VERTEX
8
0
10
9066
20
1196
0
SEQEND
0
POLYLINE
8
0
62
4
66
1
40
1
41
1
0
VERTEX
8
0
10
9157
20
1154
0
VERTEX
8
0
10
9066
20
1154
0
SEQEND
0
POLYLINE
8
0
62
4
66
1
40
1
41
1
0
VERTEX
8
0
10
9157
20
1062
0
VERTEX
8
0
10
9066
20
1062
0
SEQEND
0
POLYLINE
8
0
62
4
66
1
40
1
41
1
0
VERTEX
8
0
10
9157
20
1018
0
VERTEX
8
0
10
9066
20
1018
0
SEQEND
0
POLYLINE
8
0
62
4
66
1
40
1
41
1
0
VERTEX
8
0
10
9157
20
750
0
VERTEX
8
0
10
8978
20
750
0
SEQEND
0
POLYLINE
8
0
62
4
66
1
40
1
41
1
0
VERTEX
8
0
10
9157
20
927
0
VERTEX
8
0
10
8978
20
927
0
SEQEND
0
POLYLINE
8
0
62
4
66
1
40
1
41
1
0
VERTEX
8
0
10
9157
20
1108
0
VERTEX
8
0
10
8978
20
1108
0
SEQEND
0
POLYLINE
8
0
62
4
66
1
40
1
41
1
0
VERTEX
8
0
10
9157
20
972
0
VERTEX
8
0
10
9066
20
972
0
SEQEND
0
POLYLINE
8
0
62
4
66
1
40
1
41
1
0
VERTEX
8
0
10
9157
20
884
0
VERTEX
8
0
10
9066
20
884
0
SEQEND
0
POLYLINE
8
0
62
4
66
1
40
1
41
1
0
VERTEX
8
0
10
9157
20
838
0
VERTEX
8
0
10
9066
20
838
0
SEQEND
0
POLYLINE
8
0
62
4
66
1
40
1
41
1
0
VERTEX
8
0
10
9157
20
792
0
VERTEX
8
0
10
9066
20
792
0
SEQEND
0
POLYLINE
8
0
62
4
66
1
40
1
41
1
0
VERTEX
8
0
10
9157
20
30
0
VERTEX
8
0
10
8978
20
30
0
SEQEND
0
POLYLINE
8
0
62
6
66
1
40
1
41
1
0
VERTEX
8
0
10
10176
20
2908
0
VERTEX
8
0
10
10084
20
2908
0
SEQEND
0
POLYLINE
8
0
62
5
66
1
40
1
41
1
0
VERTEX
8
0
10
10264
20
2908
0
VERTEX
8
0
10
10176
20
2908
0
SEQEND
0
POLYLINE
8
0
62
4
66
1
40
1
41
1
0
VERTEX
8
0
10
10353
20
2908
0
VERTEX
8
0
10
10264
20
2908
0
SEQEND
0
POLYLINE
8
0
62
4
66
1
40
1
41
1
0
VERTEX
8
0
10
10353
20
3086
0
VERTEX
8
0
10
10264
20
3086
0
SEQEND
0
POLYLINE
8
0
62
4
66
1
40
1
41
1
0
VERTEX
8
0
10
10353
20
2366
0
VERTEX
8
0
10
10264
20
2366
0
SEQEND
0
POLYLINE
8
0
62
4
66
1
40
1
41
1
0
VERTEX
8
0
10
10353
20
2547
0
VERTEX
8
0
10
10264
20
2547
0
SEQEND
0
POLYLINE
8
0
62
4
66
1
40
1
41
1
0
VERTEX
8
0
10
10353
20
2728
0
VERTEX
8
0
10
10264
20
2728
0
SEQEND
0
POLYLINE
8
0
62
3
66
1
40
1
41
1
0
VERTEX
8
0
10
10444
20
2458
0
VERTEX
8
0
10
10353
20
2458
0
SEQEND
0
POLYLINE
8
0
62
3
66
1
40
1
41
1
0
VERTEX
8
0
10
10444
20
2412
0
VERTEX
8
0
10
10353
20
2412
0
SEQEND
0
POLYLINE
8
0
62
3
66
1
40
1
41
1
0
VERTEX
8
0
10
10444
20
2501
0
VERTEX
8
0
10
10353
20
2501
0
SEQEND
0
POLYLINE
8
0
62
3
66
1
40
1
41
1
0
VERTEX
8
0
10
10444
20
2547
0
VERTEX
8
0
10
10353
20
2547
0
SEQEND
0
POLYLINE
8
0
62
3
66
1
40
1
41
1
0
VERTEX
8
0
10
10444
20
2728
0
VERTEX
8
0
10
10353
20
2728
0
SEQEND
0
POLYLINE
8
0
62
3
66
1
40
1
41
1
0
VERTEX
8
0
10
10444
20
2682
0
VERTEX
8
0
10
10353
20
2682
0
SEQEND
0
POLYLINE
8
0
62
3
66
1
40
1
41
1
0
VERTEX
8
0
10
10444
20
2277
0
VERTEX
8
0
10
10353
20
2277
0
SEQEND
0
POLYLINE
8
0
62
3
66
1
40
1
41
1
0
VERTEX
8
0
10
10444
20
2323
0
VERTEX
8
0
10
10353
20
2323
0
SEQEND
0
POLYLINE
8
0
62
3
66
1
40
1
41
1
0
VERTEX
8
0
10
10444
20
2366
0
VERTEX
8
0
10
10353
20
2366
0
SEQEND
0
POLYLINE
8
0
62
3
66
1
40
1
41
1
0
VERTEX
8
0
10
10444
20
2636
0
VERTEX
8
0
10
10353
20
2636
0
SEQEND
0
POLYLINE
8
0
62
3
66
1
40
1
41
1
0
VERTEX
8
0
10
10444
20
2593
0
VERTEX
8
0
10
10353
20
2593
0
SEQEND
0
POLYLINE
8
0
62
3
66
1
40
1
41
1
0
VERTEX
8
0
10
10444
20
3043
0
VERTEX
8
0
10
10353
20
3043
0
SEQEND
0
POLYLINE
8
0
62
3
66
1
40
1
41
1
0
VERTEX
8
0
10
10444
20
3221
0
VERTEX
8
0
10
10353
20
3221
0
SEQEND
0
POLYLINE
8
0
62
3
66
1
40
1
41
1
0
VERTEX
8
0
10
10444
20
3178
0
VERTEX
8
0
10
10353
20
3178
0
SEQEND
0
POLYLINE
8
0
62
3
66
1
40
1
41
1
0
VERTEX
8
0
10
10444
20
3132
0
VERTEX
8
0
10
10353
20
3132
0
SEQEND
0
POLYLINE
8
0
62
3
66
1
40
1
41
1
0
VERTEX
8
0
10
10444
20
2996
0
VERTEX
8
0
10
10353
20
2996
0
SEQEND
0
POLYLINE
8
0
62
3
66
1
40
1
41
1
0
VERTEX
8
0
10
10444
20
3086
0
VERTEX
8
0
10
10353
20
3086
0
SEQEND
0
POLYLINE
8
0
62
3
66
1
40
1
41
1
0
VERTEX
8
0
10
10444
20
2951
0
VERTEX
8
0
10
10353
20
2951
0
SEQEND
0
POLYLINE
8
0
62
3
66
1
40
1
41
1
0
VERTEX
8
0
10
10444
20
2770
0
VERTEX
8
0
10
10353
20
2770
0
SEQEND
0
POLYLINE
8
0
62
3
66
1
40
1
41
1
0
VERTEX
8
0
10
10444
20
2908
0
VERTEX
8
0
10
10353
20
2908
0
SEQEND
0
POLYLINE
8
0
62
3
66
1
40
1
41
1
0
VERTEX
8
0
10
10444
20
2862
0
VERTEX
8
0
10
10353
20
2862
0
SEQEND
0
POLYLINE
8
0
62
3
66
1
40
1
41
1
0
VERTEX
8
0
10
10444
20
2816
0
VERTEX
8
0
10
10353
20
2816
0
SEQEND
0
POLYLINE
8
0
62
4
66
1
40
1
41
1
0
VERTEX
8
0
10
10353
20
1827
0
VERTEX
8
0
10
10264
20
1827
0
SEQEND
0
POLYLINE
8
0
62
5
66
1
40
1
41
1
0
VERTEX
8
0
10
10264
20
2189
0
VERTEX
8
0
10
10176
20
2189
0
SEQEND
0
POLYLINE
8
0
62
4
66
1
40
1
41
1
0
VERTEX
8
0
10
10353
20
2189
0
VERTEX
8
0
10
10264
20
2189
0
SEQEND
0
POLYLINE
8
0
62
4
66
1
40
1
41
1
0
VERTEX
8
0
10
10353
20
2008
0
VERTEX
8
0
10
10264
20
2008
0
SEQEND
0
POLYLINE
8
0
62
4
66
1
40
1
41
1
0
VERTEX
8
0
10
10353
20
1469
0
VERTEX
8
0
10
10264
20
1469
0
SEQEND
0
POLYLINE
8
0
62
5
66
1
40
1
41
1
0
VERTEX
8
0
10
10264
20
1469
0
VERTEX
8
0
10
10176
20
1469
0
SEQEND
0
POLYLINE
8
0
62
6
66
1
40
1
41
1
0
VERTEX
8
0
10
10176
20
1469
0
VERTEX
8
0
10
10084
20
1469
0
SEQEND
0
POLYLINE
8
0
62
4
66
1
40
1
41
1
0
VERTEX
8
0
10
10353
20
1288
0
VERTEX
8
0
10
10264
20
1288
0
SEQEND
0
POLYLINE
8
0
62
4
66
1
40
1
41
1
0
VERTEX
8
0
10
10353
20
1647
0
VERTEX
8
0
10
10264
20
1647
0
SEQEND
0
POLYLINE
8
0
62
3
66
1
40
1
41
1
0
VERTEX
8
0
10
10444
20
1558
0
VERTEX
8
0
10
10353
20
1558
0
SEQEND
0
POLYLINE
8
0
62
3
66
1
40
1
41
1
0
VERTEX
8
0
10
10444
20
1604
0
VERTEX
8
0
10
10353
20
1604
0
SEQEND
0
POLYLINE
8
0
62
3
66
1
40
1
41
1
0
VERTEX
8
0
10
10444
20
1647
0
VERTEX
8
0
10
10353
20
1647
0
SEQEND
0
POLYLINE
8
0
62
3
66
1
40
1
41
1
0
VERTEX
8
0
10
10444
20
1693
0
VERTEX
8
0
10
10353
20
1693
0
SEQEND
0
POLYLINE
8
0
62
3
66
1
40
1
41
1
0
VERTEX
8
0
10
10444
20
1242
0
VERTEX
8
0
10
10353
20
1242
0
SEQEND
0
POLYLINE
8
0
62
3
66
1
40
1
41
1
0
VERTEX
8
0
10
10444
20
1334
0
VERTEX
8
0
10
10353
20
1334
0
SEQEND
0
POLYLINE
8
0
62
3
66
1
40
1
41
1
0
VERTEX
8
0
10
10444
20
1511
0
VERTEX
8
0
10
10353
20
1511
0
SEQEND
0
POLYLINE
8
0
62
3
66
1
40
1
41
1
0
VERTEX
8
0
10
10444
20
1288
0
VERTEX
8
0
10
10353
20
1288
0
SEQEND
0
POLYLINE
8
0
62
3
66
1
40
1
41
1
0
VERTEX
8
0
10
10444
20
1469
0
VERTEX
8
0
10
10353
20
1469
0
SEQEND
0
POLYLINE
8
0
62
3
66
1
40
1
41
1
0
VERTEX
8
0
10
10444
20
1422
0
VERTEX
8
0
10
10353
20
1422
0
SEQEND
0
POLYLINE
8
0
62
3
66
1
40
1
41
1
0
VERTEX
8
0
10
10444
20
1377
0
VERTEX
8
0
10
10353
20
1377
0
SEQEND
0
POLYLINE
8
0
62
3
66
1
40
1
41
1
0
VERTEX
8
0
10
10444
20
2189
0
VERTEX
8
0
10
10353
20
2189
0
SEQEND
0
POLYLINE
8
0
62
3
66
1
40
1
41
1
0
VERTEX
8
0
10
10444
20
2231
0
VERTEX
8
0
10
10353
20
2231
0
SEQEND
0
POLYLINE
8
0
62
3
66
1
40
1
41
1
0
VERTEX
8
0
10
10444
20
2143
0
VERTEX
8
0
10
10353
20
2143
0
SEQEND
0
POLYLINE
8
0
62
3
66
1
40
1
41
1
0
VERTEX
8
0
10
10444
20
1781
0
VERTEX
8
0
10
10353
20
1781
0
SEQEND
0
POLYLINE
8
0
62
3
66
1
40
1
41
1
0
VERTEX
8
0
10
10444
20
2097
0
VERTEX
8
0
10
10353
20
2097
0
SEQEND
0
POLYLINE
8
0
62
3
66
1
40
1
41
1
0
VERTEX
8
0
10
10444
20
1738
0
VERTEX
8
0
10
10353
20
1738
0
SEQEND
0
POLYLINE
8
0
62
3
66
1
40
1
41
1
0
VERTEX
8
0
10
10444
20
1873
0
VERTEX
8
0
10
10353
20
1873
0
SEQEND
0
POLYLINE
8
0
62
3
66
1
40
1
41
1
0
VERTEX
8
0
10
10444
20
1827
0
VERTEX
8
0
10
10353
20
1827
0
SEQEND
0
POLYLINE
8
0
62
3
66
1
40
1
41
1
0
VERTEX
8
0
10
10444
20
1915
0
VERTEX
8
0
10
10353
20
1915
0
SEQEND
0
POLYLINE
8
0
62
3
66
1
40
1
41
1
0
VERTEX
8
0
10
10444
20
1962
0
VERTEX
8
0
10
10353
20
1962
0
SEQEND
0
POLYLINE
8
0
62
3
66
1
40
1
41
1
0
VERTEX
8
0
10
10444
20
2008
0
VERTEX
8
0
10
10353
20
2008
0
SEQEND
0
POLYLINE
8
0
62
3
66
1
40
1
41
1
0
VERTEX
8
0
10
10444
20
2055
0
VERTEX
8
0
10
10353
20
2055
0
SEQEND
0
POLYLINE
8
0
62
5
66
1
40
1
41
1
0
VERTEX
8
0
10
10264
20
750
0
VERTEX
8
0
10
10176
20
750
0
SEQEND
0
POLYLINE
8
0
62
4
66
1
40
1
41
1
0
VERTEX
8
0
10
10353
20
750
0
VERTEX
8
0
10
10264
20
750
0
SEQEND
0
POLYLINE
8
0
62
4
66
1
40
1
41
1
0
VERTEX
8
0
10
10353
20
927
0
VERTEX
8
0
10
10264
20
927
0
SEQEND
0
POLYLINE
8
0
62
4
66
1
40
1
41
1
0
VERTEX
8
0
10
10353
20
1108
0
VERTEX
8
0
10
10264
20
1108
0
SEQEND
0
POLYLINE
8
0
62
4
66
1
40
1
41
1
0
VERTEX
8
0
10
10353
20
388
0
VERTEX
8
0
10
10264
20
388
0
SEQEND
0
POLYLINE
8
0
62
4
66
1
40
1
41
1
0
VERTEX
8
0
10
10353
20
569
0
VERTEX
8
0
10
10264
20
569
0
SEQEND
0
POLYLINE
8
0
62
3
66
1
40
1
41
1
0
VERTEX
8
0
10
10444
20
480
0
VERTEX
8
0
10
10353
20
480
0
SEQEND
0
POLYLINE
8
0
62
3
66
1
40
1
41
1
0
VERTEX
8
0
10
10444
20
253
0
VERTEX
8
0
10
10353
20
253
0
SEQEND
0
POLYLINE
8
0
62
3
66
1
40
1
41
1
0
VERTEX
8
0
10
10444
20
299
0
VERTEX
8
0
10
10353
20
299
0
SEQEND
0
POLYLINE
8
0
62
3
66
1
40
1
41
1
0
VERTEX
8
0
10
10444
20
341
0
VERTEX
8
0
10
10353
20
341
0
SEQEND
0
POLYLINE
8
0
62
3
66
1
40
1
41
1
0
VERTEX
8
0
10
10444
20
434
0
VERTEX
8
0
10
10353
20
434
0
SEQEND
0
POLYLINE
8
0
62
3
66
1
40
1
41
1
0
VERTEX
8
0
10
10444
20
657
0
VERTEX
8
0
10
10353
20
657
0
SEQEND
0
POLYLINE
8
0
62
3
66
1
40
1
41
1
0
VERTEX
8
0
10
10444
20
615
0
VERTEX
8
0
10
10353
20
615
0
SEQEND
0
POLYLINE
8
0
62
3
66
1
40
1
41
1
0
VERTEX
8
0
10
10444
20
522
0
VERTEX
8
0
10
10353
20
522
0
SEQEND
0
POLYLINE
8
0
62
3
66
1
40
1
41
1
0
VERTEX
8
0
10
10444
20
569
0
VERTEX
8
0
10
10353
20
569
0
SEQEND
0
POLYLINE
8
0
62
3
66
1
40
1
41
1
0
VERTEX
8
0
10
10444
20
388
0
VERTEX
8
0
10
10353
20
388
0
SEQEND
0
POLYLINE
8
0
62
3
66
1
40
1
41
1
0
VERTEX
8
0
10
10444
20
703
0
VERTEX
8
0
10
10353
20
703
0
SEQEND
0
POLYLINE
8
0
62
3
66
1
40
1
41
1
0
VERTEX
8
0
10
10444
20
792
0
VERTEX
8
0
10
10353
20
792
0
SEQEND
0
POLYLINE
8
0
62
3
66
1
40
1
41
1
0
VERTEX
8
0
10
10444
20
750
0
VERTEX
8
0
10
10353
20
750
0
SEQEND
0
POLYLINE
8
0
62
3
66
1
40
1
41
1
0
VERTEX
8
0
10
10444
20
1196
0
VERTEX
8
0
10
10353
20
1196
0
SEQEND
0
POLYLINE
8
0
62
3
66
1
40
1
41
1
0
VERTEX
8
0
10
10444
20
972
0
VERTEX
8
0
10
10353
20
972
0
SEQEND
0
POLYLINE
8
0
62
3
66
1
40
1
41
1
0
VERTEX
8
0
10
10444
20
927
0
VERTEX
8
0
10
10353
20
927
0
SEQEND
0
POLYLINE
8
0
62
3
66
1
40
1
41
1
0
VERTEX
8
0
10
10444
20
1154
0
VERTEX
8
0
10
10353
20
1154
0
SEQEND
0
POLYLINE
8
0
62
3
66
1
40
1
41
1
0
VERTEX
8
0
10
10444
20
1108
0
VERTEX
8
0
10
10353
20
1108
0
SEQEND
0
POLYLINE
8
0
62
3
66
1
40
1
41
1
0
VERTEX
8
0
10
10444
20
1062
0
VERTEX
8
0
10
10353
20
1062
0
SEQEND
0
POLYLINE
8
0
62
3
66
1
40
1
41
1
0
VERTEX
8
0
10
10444
20
838
0
VERTEX
8
0
10
10353
20
838
0
SEQEND
0
POLYLINE
8
0
62
3
66
1
40
1
41
1
0
VERTEX
8
0
10
10444
20
884
0
VERTEX
8
0
10
10353
20
884
0
SEQEND
0
POLYLINE
8
0
62
3
66
1
40
1
41
1
0
VERTEX
8
0
10
10444
20
1018
0
VERTEX
8
0
10
10353
20
1018
0
SEQEND
0
POLYLINE
8
0
62
4
66
1
40
1
41
1
0
VERTEX
8
0
10
10353
20
207
0
VERTEX
8
0
10
10264
20
207
0
SEQEND
0
POLYLINE
8
0
62
3
66
1
40
1
41
1
0
VERTEX
8
0
10
10444
20
165
0
VERTEX
8
0
10
10353
20
165
0
SEQEND
0
POLYLINE
8
0
62
3
66
1
40
1
41
1
0
VERTEX
8
0
10
10444
20
207
0
VERTEX
8
0
10
10353
20
207
0
SEQEND
0
POLYLINE
8
0
62
3
66
1
40
1
41
1
0
VERTEX
8
0
10
10444
20
119
0
VERTEX
8
0
10
10353
20
119
0
SEQEND
0
POLYLINE
8
0
62
3
66
1
40
1
41
1
0
VERTEX
8
0
10
10444
20
73
0
VERTEX
8
0
10
10353
20
73
0
SEQEND
0
POLYLINE
8
0
62
3
66
1
40
1
41
1
0
VERTEX
8
0
10
10353
20
30
0
VERTEX
8
0
10
10444
20
30
0
SEQEND
0
POLYLINE
8
0
62
7
66
1
40
1
41
1
0
VERTEX
8
0
10
9880
20
3876
0
VERTEX
8
0
10
10444
20
3876
0
SEQEND
0
POLYLINE
8
0
62
5
66
1
40
20
41
20
0
VERTEX
8
0
10
7365
20
30
0
VERTEX
8
0
10
7365
20
3496
0
SEQEND
0
POLYLINE
8
0
62
6
66
1
40
1
41
1
0
VERTEX
8
0
10
9880
20
30
0
VERTEX
8
0
10
10353
20
30
0
SEQEND
0
POLYLINE
8
0
62
5
66
1
40
20
41
20
0
VERTEX
8
0
10
9880
20
3496
0
VERTEX
8
0
10
9880
20
30
0
SEQEND
0
POLYLINE
8
0
62
7
66
1
40
1
41
1
0
VERTEX
8
0
10
10353
20
3496
0
VERTEX
8
0
10
9880
20
3496
0
SEQEND
0
POLYLINE
8
0
62
1
66
1
40
1
41
1
0
VERTEX
8
0
10
9880
20
4344
0
VERTEX
8
0
10
10084
20
4344
0
SEQEND
0
POLYLINE
8
0
62
5
66
1
40
20
41
20
0
VERTEX
8
0
10
7365
20
14419
0
VERTEX
8
0
10
7365
20
4344
0
SEQEND
0
POLYLINE
8
0
62
5
66
1
40
20
41
20
0
VERTEX
8
0
10
9880
20
14419
0
VERTEX
8
0
10
9880
20
4344
0
SEQEND
0
POLYLINE
8
0
62
6
66
1
40
1
41
1
0
VERTEX
8
0
10
6507
20
11048
0
VERTEX
8
0
10
6496
20
11044
0
SEQEND
0
POLYLINE
8
0
62
5
66
1
40
1
41
1
0
VERTEX
8
0
10
6514
20
11050
0
VERTEX
8
0
10
6507
20
11048
0
SEQEND
0
POLYLINE
8
0
62
6
66
1
40
1
41
1
0
VERTEX
8
0
10
6517
20
11052
0
VERTEX
8
0
10
6514
20
11050
0
SEQEND
0
POLYLINE
8
0
62
5
66
1
40
1
41
1
0
VERTEX
8
0
10
6663
20
10945
0
VERTEX
8
0
10
6552
20
10911
0
SEQEND
0
POLYLINE
8
0
62
5
66
1
40
1
41
1
0
VERTEX
8
0
10
6648
20
10992
0
VERTEX
8
0
10
6538
20
10957
0
SEQEND
0
POLYLINE
8
0
62
3
66
1
40
1
41
1
0
VERTEX
8
0
10
6362
20
10995
0
VERTEX
8
0
10
6496
20
11044
0
VERTEX
8
0
10
6517
20
11052
0
VERTEX
8
0
10
6615
20
11088
0
SEQEND
0
POLYLINE
8
0
62
5
66
1
40
1
41
1
0
VERTEX
8
0
10
6632
20
11040
0
VERTEX
8
0
10
6523
20
11003
0
SEQEND
0
POLYLINE
8
0
62
5
66
1
40
1
41
1
0
VERTEX
8
0
10
6690
20
10848
0
VERTEX
8
0
10
6579
20
10818
0
SEQEND
0
POLYLINE
8
0
62
5
66
1
40
1
41
1
0
VERTEX
8
0
10
6677
20
10896
0
VERTEX
8
0
10
6566
20
10865
0
SEQEND
0
POLYLINE
8
0
62
5
66
1
40
1
41
1
0
VERTEX
8
0
10
6726
20
10701
0
VERTEX
8
0
10
6613
20
10677
0
SEQEND
0
POLYLINE
8
0
62
5
66
1
40
1
41
1
0
VERTEX
8
0
10
6715
20
10750
0
VERTEX
8
0
10
6602
20
10724
0
SEQEND
0
POLYLINE
8
0
62
5
66
1
40
1
41
1
0
VERTEX
8
0
10
6703
20
10799
0
VERTEX
8
0
10
6591
20
10771
0
SEQEND
0
POLYLINE
8
0
62
5
66
1
40
1
41
1
0
VERTEX
8
0
10
6741
20
10653
0
VERTEX
8
0
10
6623
20
10630
0
SEQEND
0
POLYLINE
8
0
62
7
66
1
40
1
41
1
0
VERTEX
8
0
10
6775
20
10404
0
VERTEX
8
0
10
6780
20
10354
0
VERTEX
8
0
10
6783
20
10303
0
VERTEX
8
0
10
6786
20
10253
0
VERTEX
8
0
10
6788
20
10203
0
VERTEX
8
0
10
6789
20
10153
0
VERTEX
8
0
10
6789
20
10102
0
VERTEX
8
0
10
6789
20
10052
0
VERTEX
8
0
10
6788
20
10002
0
VERTEX
8
0
10
6786
20
9952
0
VERTEX
8
0
10
6783
20
9902
0
VERTEX
8
0
10
6780
20
9851
0
VERTEX
8
0
10
6775
20
9801
0
VERTEX
8
0
10
6770
20
9751
0
VERTEX
8
0
10
6764
20
9701
0
VERTEX
8
0
10
6757
20
9651
0
VERTEX
8
0
10
6749
20
9601
0
VERTEX
8
0
10
6741
20
9552
0
VERTEX
8
0
10
6671
20
9257
0
VERTEX
8
0
10
6569
20
8974
0
VERTEX
8
0
10
6437
20
8705
0
VERTEX
8
0
10
6272
20
8448
0
VERTEX
8
0
10
6242
20
8407
0
VERTEX
8
0
10
6211
20
8367
0
VERTEX
8
0
10
6180
20
8327
0
VERTEX
8
0
10
6149
20
8289
0
VERTEX
8
0
10
6116
20
8250
0
VERTEX
8
0
10
6083
20
8212
0
VERTEX
8
0
10
6049
20
8175
0
VERTEX
8
0
10
6015
20
8138
0
VERTEX
8
0
10
5981
20
8101
0
VERTEX
8
0
10
5945
20
8066
0
VERTEX
8
0
10
5910
20
8030
0
VERTEX
8
0
10
5873
20
7996
0
VERTEX
8
0
10
5836
20
7962
0
VERTEX
8
0
10
5799
20
7928
0
VERTEX
8
0
10
5761
20
7895
0
VERTEX
8
0
10
5722
20
7862
0
VERTEX
8
0
10
5684
20
7831
0
VERTEX
8
0
10
5644
20
7800
0
VERTEX
8
0
10
5604
20
7769
0
VERTEX
8
0
10
5563
20
7739
0
VERTEX
8
0
10
5307
20
7576
0
VERTEX
8
0
10
5037
20
7443
0
VERTEX
8
0
10
4755
20
7341
0
VERTEX
8
0
10
4459
20
7270
0
VERTEX
8
0
10
4410
20
7261
0
VERTEX
8
0
10
4360
20
7254
0
VERTEX
8
0
10
4310
20
7247
0
VERTEX
8
0
10
4260
20
7241
0
VERTEX
8
0
10
4210
20
7236
0
VERTEX
8
0
10
4160
20
7231
0
VERTEX
8
0
10
4109
20
7228
0
VERTEX
8
0
10
4059
20
7225
0
VERTEX
8
0
10
4009
20
7223
0
VERTEX
8
0
10
3959
20
7222
0
VERTEX
8
0
10
3909
20
7222
0
VERTEX
8
0
10
3858
20
7222
0
VERTEX
8
0
10
3808
20
7223
0
VERTEX
8
0
10
3758
20
7225
0
VERTEX
8
0
10
3708
20
7228
0
VERTEX
8
0
10
3657
20
7231
0
VERTEX
8
0
10
3607
20
7236
0
VERTEX
8
0
10
3558
20
7241
0
VERTEX
8
0
10
3508
20
7247
0
VERTEX
8
0
10
3458
20
7254
0
VERTEX
8
0
10
3408
20
7262
0
VERTEX
8
0
10
3358
20
7270
0
VERTEX
8
0
10
3064
20
7341
0
VERTEX
8
0
10
2781
20
7443
0
VERTEX
8
0
10
2512
20
7576
0
VERTEX
8
0
10
2255
20
7739
0
VERTEX
8
0
10
2214
20
7769
0
VERTEX
8
0
10
2174
20
7800
0
VERTEX
8
0
10
2134
20
7831
0
VERTEX
8
0
10
2095
20
7863
0
VERTEX
8
0
10
2057
20
7895
0
VERTEX
8
0
10
2019
20
7928
0
VERTEX
8
0
10
1981
20
7962
0
VERTEX
8
0
10
1944
20
7996
0
VERTEX
8
0
10
1908
20
8030
0
VERTEX
8
0
10
1872
20
8066
0
VERTEX
8
0
10
1837
20
8101
0
VERTEX
8
0
10
1802
20
8138
0
VERTEX
8
0
10
1768
20
8175
0
VERTEX
8
0
10
1735
20
8212
0
VERTEX
8
0
10
1702
20
8250
0
VERTEX
8
0
10
1669
20
8289
0
VERTEX
8
0
10
1638
20
8327
0
VERTEX
8
0
10
1606
20
8367
0
VERTEX
8
0
10
1576
20
8407
0
VERTEX
8
0
10
1546
20
8448
0
VERTEX
8
0
10
1517
20
8489
0
VERTEX
8
0
10
1371
20
8727
0
VERTEX
8
0
10
1250
20
8975
0
VERTEX
8
0
10
1156
20
9234
0
VERTEX
8
0
10
1087
20
9503
0
VERTEX
8
0
10
1077
20
9552
0
VERTEX
8
0
10
1069
20
9601
0
VERTEX
8
0
10
1061
20
9651
0
VERTEX
8
0
10
1054
20
9701
0
VERTEX
8
0
10
1048
20
9752
0
VERTEX
8
0
10
1043
20
9801
0
VERTEX
8
0
10
1039
20
9851
0
VERTEX
8
0
10
1035
20
9902
0
VERTEX
8
0
10
1033
20
9952
0
VERTEX
8
0
10
1031
20
10002
0
VERTEX
8
0
10
1030
20
10052
0
VERTEX
8
0
10
1029
20
10102
0
VERTEX
8
0
10
1030
20
10153
0
VERTEX
8
0
10
1031
20
10203
0
VERTEX
8
0
10
1033
20
10253
0
VERTEX
8
0
10
1035
20
10303
0
VERTEX
8
0
10
1039
20
10354
0
VERTEX
8
0
10
1043
20
10404
0
VERTEX
8
0
10
1048
20
10453
0
VERTEX
8
0
10
1054
20
10503
0
VERTEX
8
0
10
1061
20
10553
0
VERTEX
8
0
10
1069
20
10603
0
VERTEX
8
0
10
1078
20
10652
0
VERTEX
8
0
10
1087
20
10702
0
VERTEX
8
0
10
1097
20
10751
0
VERTEX
8
0
10
1163
20
10996
0
VERTEX
8
0
10
1250
20
11231
0
VERTEX
8
0
10
1359
20
11457
0
VERTEX
8
0
10
1489
20
11673
0
VERTEX
8
0
10
1518
20
11715
0
VERTEX
8
0
10
1546
20
11756
0
VERTEX
8
0
10
1576
20
11797
0
VERTEX
8
0
10
1607
20
11837
0
VERTEX
8
0
10
1638
20
11877
0
VERTEX
8
0
10
1669
20
11916
0
VERTEX
8
0
10
1702
20
11954
0
VERTEX
8
0
10
1735
20
11992
0
VERTEX
8
0
10
1768
20
12030
0
VERTEX
8
0
10
1802
20
12067
0
VERTEX
8
0
10
1837
20
12103
0
VERTEX
8
0
10
1872
20
12139
0
VERTEX
8
0
10
1908
20
12174
0
VERTEX
8
0
10
1944
20
12209
0
VERTEX
8
0
10
1981
20
12243
0
VERTEX
8
0
10
2019
20
12276
0
VERTEX
8
0
10
2057
20
12309
0
VERTEX
8
0
10
2095
20
12342
0
VERTEX
8
0
10
2134
20
12373
0
VERTEX
8
0
10
2174
20
12405
0
VERTEX
8
0
10
2214
20
12435
0
VERTEX
8
0
10
2255
20
12465
0
VERTEX
8
0
10
2296
20
12494
0
VERTEX
8
0
10
2534
20
12641
0
VERTEX
8
0
10
2781
20
12762
0
VERTEX
8
0
10
3040
20
12857
0
VERTEX
8
0
10
3309
20
12924
0
VERTEX
8
0
10
3359
20
12934
0
VERTEX
8
0
10
3408
20
12942
0
VERTEX
8
0
10
3458
20
12950
0
VERTEX
8
0
10
3508
20
12957
0
VERTEX
8
0
10
3558
20
12963
0
VERTEX
8
0
10
3607
20
12968
0
VERTEX
8
0
10
3657
20
12972
0
VERTEX
8
0
10
3708
20
12976
0
VERTEX
8
0
10
3758
20
12978
0
VERTEX
8
0
10
3808
20
12980
0
VERTEX
8
0
10
3858
20
12981
0
VERTEX
8
0
10
3909
20
12982
0
VERTEX
8
0
10
3959
20
12981
0
VERTEX
8
0
10
4009
20
12980
0
VERTEX
8
0
10
4059
20
12978
0
VERTEX
8
0
10
4109
20
12976
0
VERTEX
8
0
10
4160
20
12972
0
VERTEX
8
0
10
4210
20
12968
0
VERTEX
8
0
10
4259
20
12963
0
VERTEX
8
0
10
4310
20
12957
0
VERTEX
8
0
10
4360
20
12950
0
VERTEX
8
0
10
4410
20
12942
0
VERTEX
8
0
10
4459
20
12934
0
VERTEX
8
0
10
4508
20
12924
0
VERTEX
8
0
10
4779
20
12857
0
VERTEX
8
0
10
5038
20
12763
0
VERTEX
8
0
10
5286
20
12642
0
VERTEX
8
0
10
5522
20
12494
0
VERTEX
8
0
10
5563
20
12465
0
VERTEX
8
0
10
5604
20
12435
0
VERTEX
8
0
10
5644
20
12405
0
VERTEX
8
0
10
5684
20
12373
0
VERTEX
8
0
10
5722
20
12342
0
VERTEX
8
0
10
5761
20
12309
0
VERTEX
8
0
10
5799
20
12276
0
VERTEX
8
0
10
5836
20
12243
0
VERTEX
8
0
10
5873
20
12209
0
SEQEND
0
POLYLINE
8
0
62
7
66
1
40
1
41
1
0
VERTEX
8
0
10
5873
20
12209
0
VERTEX
8
0
10
5910
20
12174
0
VERTEX
8
0
10
5945
20
12139
0
VERTEX
8
0
10
5981
20
12103
0
VERTEX
8
0
10
6015
20
12067
0
VERTEX
8
0
10
6049
20
12030
0
VERTEX
8
0
10
6083
20
11992
0
VERTEX
8
0
10
6116
20
11954
0
VERTEX
8
0
10
6148
20
11916
0
VERTEX
8
0
10
6180
20
11877
0
VERTEX
8
0
10
6211
20
11837
0
VERTEX
8
0
10
6242
20
11797
0
VERTEX
8
0
10
6272
20
11756
0
VERTEX
8
0
10
6300
20
11716
0
VERTEX
8
0
10
6454
20
11469
0
VERTEX
8
0
10
6578
20
11209
0
VERTEX
8
0
10
6674
20
10937
0
VERTEX
8
0
10
6741
20
10653
0
VERTEX
8
0
10
6749
20
10603
0
VERTEX
8
0
10
6757
20
10553
0
VERTEX
8
0
10
6764
20
10503
0
VERTEX
8
0
10
6770
20
10453
0
VERTEX
8
0
10
6775
20
10404
0
SEQEND
0
POLYLINE
8
0
62
3
66
1
40
1
41
1
0
VERTEX
8
0
10
6631
20
10583
0
VERTEX
8
0
10
6480
20
10556
0
SEQEND
0
POLYLINE
8
0
62
5
66
1
40
1
41
1
0
VERTEX
8
0
10
6642
20
10585
0
VERTEX
8
0
10
6631
20
10583
0
SEQEND
0
POLYLINE
8
0
62
5
66
1
40
1
41
1
0
VERTEX
8
0
10
6677
20
10344
0
VERTEX
8
0
10
6663
20
10343
0
SEQEND
0
POLYLINE
8
0
62
3
66
1
40
1
41
1
0
VERTEX
8
0
10
6663
20
10343
0
VERTEX
8
0
10
6510
20
10330
0
SEQEND
0
POLYLINE
8
0
62
5
66
1
40
1
41
1
0
VERTEX
8
0
10
6788
20
10203
0
VERTEX
8
0
10
6672
20
10199
0
SEQEND
0
POLYLINE
8
0
62
5
66
1
40
1
41
1
0
VERTEX
8
0
10
6789
20
10153
0
VERTEX
8
0
10
6673
20
10151
0
SEQEND
0
POLYLINE
8
0
62
3
66
1
40
1
41
1
0
VERTEX
8
0
10
6749
20
10603
0
VERTEX
8
0
10
6642
20
10585
0
SEQEND
0
POLYLINE
8
0
62
5
66
1
40
1
41
1
0
VERTEX
8
0
10
6757
20
10553
0
VERTEX
8
0
10
6639
20
10535
0
SEQEND
0
POLYLINE
8
0
62
3
66
1
40
1
41
1
0
VERTEX
8
0
10
6780
20
10354
0
VERTEX
8
0
10
6677
20
10344
0
SEQEND
0
POLYLINE
8
0
62
5
66
1
40
1
41
1
0
VERTEX
8
0
10
6786
20
10253
0
VERTEX
8
0
10
6670
20
10247
0
SEQEND
0
POLYLINE
8
0
62
5
66
1
40
1
41
1
0
VERTEX
8
0
10
6783
20
10303
0
VERTEX
8
0
10
6667
20
10295
0
SEQEND
0
POLYLINE
8
0
62
5
66
1
40
1
41
1
0
VERTEX
8
0
10
6775
20
10404
0
VERTEX
8
0
10
6658
20
10392
0
SEQEND
0
POLYLINE
8
0
62
5
66
1
40
1
41
1
0
VERTEX
8
0
10
6770
20
10453
0
VERTEX
8
0
10
6653
20
10439
0
SEQEND
0
POLYLINE
8
0
62
5
66
1
40
1
41
1
0
VERTEX
8
0
10
6764
20
10503
0
VERTEX
8
0
10
6646
20
10487
0
SEQEND
0
POLYLINE
8
0
62
5
66
1
40
1
41
1
0
VERTEX
8
0
10
6597
20
11135
0
VERTEX
8
0
10
6490
20
11093
0
SEQEND
0
POLYLINE
8
0
62
3
66
1
40
1
41
1
0
VERTEX
8
0
10
6673
20
10102
0
VERTEX
8
0
10
6520
20
10102
0
SEQEND
0
POLYLINE
8
0
62
3
66
1
40
1
41
1
0
VERTEX
8
0
10
6663
20
9861
0
VERTEX
8
0
10
6510
20
9875
0
SEQEND
0
POLYLINE
8
0
62
5
66
1
40
1
41
1
0
VERTEX
8
0
10
6677
20
9860
0
VERTEX
8
0
10
6663
20
9861
0
SEQEND
0
POLYLINE
8
0
62
5
66
1
40
1
41
1
0
VERTEX
8
0
10
6788
20
10002
0
VERTEX
8
0
10
6672
20
10006
0
SEQEND
0
POLYLINE
8
0
62
5
66
1
40
1
41
1
0
VERTEX
8
0
10
6786
20
9952
0
VERTEX
8
0
10
6670
20
9958
0
SEQEND
0
POLYLINE
8
0
62
5
66
1
40
1
41
1
0
VERTEX
8
0
10
6757
20
9651
0
VERTEX
8
0
10
6639
20
9670
0
SEQEND
0
POLYLINE
8
0
62
5
66
1
40
1
41
1
0
VERTEX
8
0
10
6764
20
9701
0
VERTEX
8
0
10
6646
20
9718
0
SEQEND
0
POLYLINE
8
0
62
5
66
1
40
1
41
1
0
VERTEX
8
0
10
6770
20
9751
0
VERTEX
8
0
10
6653
20
9766
0
SEQEND
0
POLYLINE
8
0
62
5
66
1
40
1
41
1
0
VERTEX
8
0
10
6775
20
9801
0
VERTEX
8
0
10
6658
20
9813
0
SEQEND
0
POLYLINE
8
0
62
3
66
1
40
1
41
1
0
VERTEX
8
0
10
6780
20
9851
0
VERTEX
8
0
10
6677
20
9860
0
SEQEND
0
POLYLINE
8
0
62
5
66
1
40
1
41
1
0
VERTEX
8
0
10
6783
20
9902
0
VERTEX
8
0
10
6667
20
9910
0
SEQEND
0
POLYLINE
8
0
62
5
66
1
40
1
41
1
0
VERTEX
8
0
10
6789
20
10102
0
VERTEX
8
0
10
6673
20
10102
0
SEQEND
0
POLYLINE
8
0
62
5
66
1
40
1
41
1
0
VERTEX
8
0
10
6789
20
10052
0
VERTEX
8
0
10
6673
20
10054
0
SEQEND
0
POLYLINE
8
0
62
5
66
1
40
1
41
1
0
VERTEX
8
0
10
6642
20
9620
0
VERTEX
8
0
10
6631
20
9622
0
SEQEND
0
POLYLINE
8
0
62
5
66
1
40
1
41
1
0
VERTEX
8
0
10
6677
20
9309
0
VERTEX
8
0
10
6566
20
9340
0
SEQEND
0
POLYLINE
8
0
62
5
66
1
40
1
41
1
0
VERTEX
8
0
10
6520
20
9152
0
VERTEX
8
0
10
6507
20
9156
0
SEQEND
0
POLYLINE
8
0
62
5
66
1
40
1
41
1
0
VERTEX
8
0
10
6663
20
9260
0
VERTEX
8
0
10
6552
20
9294
0
SEQEND
0
POLYLINE
8
0
62
5
66
1
40
1
41
1
0
VERTEX
8
0
10
6632
20
9165
0
VERTEX
8
0
10
6523
20
9202
0
SEQEND
0
POLYLINE
8
0
62
5
66
1
40
1
41
1
0
VERTEX
8
0
10
6648
20
9213
0
VERTEX
8
0
10
6538
20
9248
0
SEQEND
0
POLYLINE
8
0
62
5
66
1
40
1
41
1
0
VERTEX
8
0
10
6741
20
9552
0
VERTEX
8
0
10
6623
20
9575
0
SEQEND
0
POLYLINE
8
0
62
3
66
1
40
1
41
1
0
VERTEX
8
0
10
6749
20
9601
0
VERTEX
8
0
10
6642
20
9620
0
SEQEND
0
POLYLINE
8
0
62
5
66
1
40
1
41
1
0
VERTEX
8
0
10
6726
20
9504
0
VERTEX
8
0
10
6613
20
9528
0
SEQEND
0
POLYLINE
8
0
62
5
66
1
40
1
41
1
0
VERTEX
8
0
10
6703
20
9406
0
VERTEX
8
0
10
6591
20
9434
0
SEQEND
0
POLYLINE
8
0
62
5
66
1
40
1
41
1
0
VERTEX
8
0
10
6715
20
9455
0
VERTEX
8
0
10
6602
20
9481
0
SEQEND
0
POLYLINE
8
0
62
5
66
1
40
1
41
1
0
VERTEX
8
0
10
6690
20
9357
0
VERTEX
8
0
10
6579
20
9387
0
SEQEND
0
POLYLINE
8
0
62
3
66
1
40
1
41
1
0
VERTEX
8
0
10
6631
20
9622
0
VERTEX
8
0
10
6480
20
9649
0
SEQEND
0
POLYLINE
8
0
62
5
66
1
40
1
41
1
0
VERTEX
8
0
10
6597
20
9070
0
VERTEX
8
0
10
6490
20
9112
0
SEQEND
0
POLYLINE
8
0
62
6
66
1
40
1
41
1
0
VERTEX
8
0
10
6615
20
9117
0
VERTEX
8
0
10
6520
20
9152
0
SEQEND
0
POLYLINE
8
0
62
5
66
1
40
1
41
1
0
VERTEX
8
0
10
5080
20
12734
0
VERTEX
8
0
10
5033
20
12628
0
SEQEND
0
POLYLINE
8
0
62
5
66
1
40
1
41
1
0
VERTEX
8
0
10
5126
20
12713
0
VERTEX
8
0
10
5077
20
12608
0
SEQEND
0
POLYLINE
8
0
62
5
66
1
40
1
41
1
0
VERTEX
8
0
10
5034
20
12754
0
VERTEX
8
0
10
4989
20
12648
0
SEQEND
0
POLYLINE
8
0
62
5
66
1
40
1
41
1
0
VERTEX
8
0
10
4987
20
12773
0
VERTEX
8
0
10
4944
20
12666
0
SEQEND
0
POLYLINE
8
0
62
5
66
1
40
1
41
1
0
VERTEX
8
0
10
4941
20
12791
0
VERTEX
8
0
10
4899
20
12684
0
SEQEND
0
POLYLINE
8
0
62
3
66
1
40
1
41
1
0
VERTEX
8
0
10
5563
20
12465
0
VERTEX
8
0
10
5501
20
12377
0
SEQEND
0
POLYLINE
8
0
62
5
66
1
40
1
41
1
0
VERTEX
8
0
10
5501
20
12377
0
VERTEX
8
0
10
5494
20
12367
0
SEQEND
0
POLYLINE
8
0
62
3
66
1
40
1
41
1
0
VERTEX
8
0
10
5291
20
12497
0
VERTEX
8
0
10
5288
20
12491
0
SEQEND
0
POLYLINE
8
0
62
5
66
1
40
1
41
1
0
VERTEX
8
0
10
5295
20
12503
0
VERTEX
8
0
10
5291
20
12497
0
SEQEND
0
POLYLINE
8
0
62
6
66
1
40
1
41
1
0
VERTEX
8
0
10
5288
20
12491
0
VERTEX
8
0
10
5295
20
12503
0
SEQEND
0
POLYLINE
8
0
62
6
66
1
40
1
41
1
0
VERTEX
8
0
10
5288
20
12491
0
VERTEX
8
0
10
5285
20
12486
0
VERTEX
8
0
10
5284
20
12484
0
VERTEX
8
0
10
5157
20
12264
0
SEQEND
0
POLYLINE
8
0
62
6
66
1
40
1
41
1
0
VERTEX
8
0
10
5349
20
12597
0
VERTEX
8
0
10
5296
20
12504
0
VERTEX
8
0
10
5295
20
12503
0
SEQEND
0
POLYLINE
8
0
62
5
66
1
40
1
41
1
0
VERTEX
8
0
10
5435
20
12545
0
VERTEX
8
0
10
5374
20
12447
0
SEQEND
0
POLYLINE
8
0
62
5
66
1
40
1
41
1
0
VERTEX
8
0
10
5392
20
12571
0
VERTEX
8
0
10
5332
20
12472
0
SEQEND
0
POLYLINE
8
0
62
5
66
1
40
1
41
1
0
VERTEX
8
0
10
5644
20
12405
0
VERTEX
8
0
10
5572
20
12311
0
SEQEND
0
POLYLINE
8
0
62
5
66
1
40
1
41
1
0
VERTEX
8
0
10
5604
20
12435
0
VERTEX
8
0
10
5534
20
12339
0
SEQEND
0
POLYLINE
8
0
62
5
66
1
40
1
41
1
0
VERTEX
8
0
10
5477
20
12518
0
VERTEX
8
0
10
5414
20
12421
0
SEQEND
0
POLYLINE
8
0
62
5
66
1
40
1
41
1
0
VERTEX
8
0
10
5522
20
12494
0
VERTEX
8
0
10
5455
20
12395
0
SEQEND
0
POLYLINE
8
0
62
3
66
1
40
1
41
1
0
VERTEX
8
0
10
5494
20
12367
0
VERTEX
8
0
10
5406
20
12241
0
SEQEND
0
POLYLINE
8
0
62
5
66
1
40
1
41
1
0
VERTEX
8
0
10
5305
20
12621
0
VERTEX
8
0
10
5249
20
12521
0
SEQEND
0
POLYLINE
8
0
62
5
66
1
40
1
41
1
0
VERTEX
8
0
10
5171
20
12691
0
VERTEX
8
0
10
5121
20
12587
0
SEQEND
0
POLYLINE
8
0
62
5
66
1
40
1
41
1
0
VERTEX
8
0
10
5216
20
12669
0
VERTEX
8
0
10
5164
20
12566
0
SEQEND
0
POLYLINE
8
0
62
5
66
1
40
1
41
1
0
VERTEX
8
0
10
5261
20
12645
0
VERTEX
8
0
10
5206
20
12544
0
SEQEND
0
POLYLINE
8
0
62
3
66
1
40
1
41
1
0
VERTEX
8
0
10
5077
20
12608
0
VERTEX
8
0
10
5012
20
12469
0
SEQEND
0
POLYLINE
8
0
62
5
66
1
40
1
41
1
0
VERTEX
8
0
10
5799
20
12276
0
VERTEX
8
0
10
5722
20
12189
0
SEQEND
0
POLYLINE
8
0
62
5
66
1
40
1
41
1
0
VERTEX
8
0
10
5836
20
12243
0
VERTEX
8
0
10
5759
20
12157
0
SEQEND
0
POLYLINE
8
0
62
5
66
1
40
1
41
1
0
VERTEX
8
0
10
5695
20
12231
0
VERTEX
8
0
10
5686
20
12220
0
SEQEND
0
POLYLINE
8
0
62
3
66
1
40
1
41
1
0
VERTEX
8
0
10
5761
20
12309
0
VERTEX
8
0
10
5695
20
12231
0
SEQEND
0
POLYLINE
8
0
62
5
66
1
40
1
41
1
0
VERTEX
8
0
10
5873
20
12209
0
VERTEX
8
0
10
5794
20
12125
0
SEQEND
0
POLYLINE
8
0
62
5
66
1
40
1
41
1
0
VERTEX
8
0
10
5722
20
12342
0
VERTEX
8
0
10
5648
20
12251
0
SEQEND
0
POLYLINE
8
0
62
5
66
1
40
1
41
1
0
VERTEX
8
0
10
5684
20
12373
0
VERTEX
8
0
10
5611
20
12281
0
SEQEND
0
POLYLINE
8
0
62
5
66
1
40
1
41
1
0
VERTEX
8
0
10
3909
20
12982
0
VERTEX
8
0
10
3909
20
12867
0
SEQEND
0
POLYLINE
8
0
62
5
66
1
40
1
41
1
0
VERTEX
8
0
10
3959
20
12981
0
VERTEX
8
0
10
3957
20
12867
0
SEQEND
0
POLYLINE
8
0
62
5
66
1
40
1
41
1
0
VERTEX
8
0
10
3858
20
12981
0
VERTEX
8
0
10
3860
20
12867
0
SEQEND
0
POLYLINE
8
0
62
5
66
1
40
1
41
1
0
VERTEX
8
0
10
4009
20
12980
0
VERTEX
8
0
10
4005
20
12866
0
SEQEND
0
POLYLINE
8
0
62
5
66
1
40
1
41
1
0
VERTEX
8
0
10
3758
20
12978
0
VERTEX
8
0
10
3764
20
12864
0
SEQEND
0
POLYLINE
8
0
62
5
66
1
40
1
41
1
0
VERTEX
8
0
10
3708
20
12976
0
VERTEX
8
0
10
3716
20
12861
0
SEQEND
0
POLYLINE
8
0
62
5
66
1
40
1
41
1
0
VERTEX
8
0
10
3667
20
12871
0
VERTEX
8
0
10
3668
20
12857
0
SEQEND
0
POLYLINE
8
0
62
3
66
1
40
1
41
1
0
VERTEX
8
0
10
3657
20
12972
0
VERTEX
8
0
10
3667
20
12871
0
SEQEND
0
POLYLINE
8
0
62
5
66
1
40
1
41
1
0
VERTEX
8
0
10
3808
20
12980
0
VERTEX
8
0
10
3812
20
12866
0
SEQEND
0
POLYLINE
8
0
62
3
66
1
40
1
41
1
0
VERTEX
8
0
10
3668
20
12857
0
VERTEX
8
0
10
3681
20
12704
0
SEQEND
0
POLYLINE
8
0
62
3
66
1
40
1
41
1
0
VERTEX
8
0
10
3909
20
12867
0
VERTEX
8
0
10
3909
20
12714
0
SEQEND
0
POLYLINE
8
0
62
5
66
1
40
1
41
1
0
VERTEX
8
0
10
3607
20
12968
0
VERTEX
8
0
10
3619
20
12852
0
SEQEND
0
POLYLINE
8
0
62
5
66
1
40
1
41
1
0
VERTEX
8
0
10
3426
20
12835
0
VERTEX
8
0
10
3428
20
12825
0
SEQEND
0
POLYLINE
8
0
62
5
66
1
40
1
41
1
0
VERTEX
8
0
10
3359
20
12934
0
VERTEX
8
0
10
3381
20
12817
0
SEQEND
0
POLYLINE
8
0
62
5
66
1
40
1
41
1
0
VERTEX
8
0
10
3458
20
12950
0
VERTEX
8
0
10
3476
20
12833
0
SEQEND
0
POLYLINE
8
0
62
3
66
1
40
1
41
1
0
VERTEX
8
0
10
3408
20
12942
0
VERTEX
8
0
10
3426
20
12835
0
SEQEND
0
POLYLINE
8
0
62
5
66
1
40
1
41
1
0
VERTEX
8
0
10
3309
20
12924
0
VERTEX
8
0
10
3334
20
12807
0
SEQEND
0
POLYLINE
8
0
62
5
66
1
40
1
41
1
0
VERTEX
8
0
10
3261
20
12909
0
VERTEX
8
0
10
3287
20
12796
0
SEQEND
0
POLYLINE
8
0
62
5
66
1
40
1
41
1
0
VERTEX
8
0
10
3508
20
12957
0
VERTEX
8
0
10
3524
20
12840
0
SEQEND
0
POLYLINE
8
0
62
5
66
1
40
1
41
1
0
VERTEX
8
0
10
3558
20
12963
0
VERTEX
8
0
10
3572
20
12847
0
SEQEND
0
POLYLINE
8
0
62
3
66
1
40
1
41
1
0
VERTEX
8
0
10
3428
20
12825
0
VERTEX
8
0
10
3455
20
12674
0
SEQEND
0
POLYLINE
8
0
62
6
66
1
40
1
41
1
0
VERTEX
8
0
10
3455
20
12674
0
VERTEX
8
0
10
3475
20
12561
0
SEQEND
0
POLYLINE
8
0
62
6
66
1
40
1
41
1
0
VERTEX
8
0
10
3909
20
12714
0
VERTEX
8
0
10
3909
20
12598
0
SEQEND
0
POLYLINE
8
0
62
3
66
1
40
1
41
1
0
VERTEX
8
0
10
4624
20
12773
0
VERTEX
8
0
10
4584
20
12625
0
SEQEND
0
POLYLINE
8
0
62
5
66
1
40
1
41
1
0
VERTEX
8
0
10
4798
20
12842
0
VERTEX
8
0
10
4763
20
12732
0
SEQEND
0
POLYLINE
8
0
62
5
66
1
40
1
41
1
0
VERTEX
8
0
10
4846
20
12826
0
VERTEX
8
0
10
4809
20
12717
0
SEQEND
0
POLYLINE
8
0
62
5
66
1
40
1
41
1
0
VERTEX
8
0
10
4859
20
12714
0
VERTEX
8
0
10
4855
20
12701
0
SEQEND
0
POLYLINE
8
0
62
5
66
1
40
1
41
1
0
VERTEX
8
0
10
4702
20
12871
0
VERTEX
8
0
10
4671
20
12760
0
SEQEND
0
POLYLINE
8
0
62
5
66
1
40
1
41
1
0
VERTEX
8
0
10
4751
20
12857
0
VERTEX
8
0
10
4717
20
12746
0
SEQEND
0
POLYLINE
8
0
62
5
66
1
40
1
41
1
0
VERTEX
8
0
10
4654
20
12884
0
VERTEX
8
0
10
4624
20
12773
0
SEQEND
0
POLYLINE
8
0
62
5
66
1
40
1
41
1
0
VERTEX
8
0
10
4508
20
12924
0
VERTEX
8
0
10
4483
20
12807
0
SEQEND
0
POLYLINE
8
0
62
5
66
1
40
1
41
1
0
VERTEX
8
0
10
4556
20
12909
0
VERTEX
8
0
10
4530
20
12796
0
SEQEND
0
POLYLINE
8
0
62
5
66
1
40
1
41
1
0
VERTEX
8
0
10
4605
20
12897
0
VERTEX
8
0
10
4577
20
12785
0
SEQEND
0
POLYLINE
8
0
62
5
66
1
40
1
41
1
0
VERTEX
8
0
10
4059
20
12978
0
VERTEX
8
0
10
4053
20
12864
0
SEQEND
0
POLYLINE
8
0
62
5
66
1
40
1
41
1
0
VERTEX
8
0
10
4210
20
12968
0
VERTEX
8
0
10
4198
20
12852
0
SEQEND
0
POLYLINE
8
0
62
5
66
1
40
1
41
1
0
VERTEX
8
0
10
4109
20
12976
0
VERTEX
8
0
10
4101
20
12861
0
SEQEND
0
POLYLINE
8
0
62
3
66
1
40
1
41
1
0
VERTEX
8
0
10
4160
20
12972
0
VERTEX
8
0
10
4151
20
12871
0
SEQEND
0
POLYLINE
8
0
62
5
66
1
40
1
41
1
0
VERTEX
8
0
10
4151
20
12871
0
VERTEX
8
0
10
4150
20
12857
0
SEQEND
0
POLYLINE
8
0
62
3
66
1
40
1
41
1
0
VERTEX
8
0
10
4389
20
12825
0
VERTEX
8
0
10
4362
20
12674
0
SEQEND
0
POLYLINE
8
0
62
5
66
1
40
1
41
1
0
VERTEX
8
0
10
4391
20
12835
0
VERTEX
8
0
10
4389
20
12825
0
SEQEND
0
POLYLINE
8
0
62
5
66
1
40
1
41
1
0
VERTEX
8
0
10
4259
20
12963
0
VERTEX
8
0
10
4245
20
12847
0
SEQEND
0
POLYLINE
8
0
62
5
66
1
40
1
41
1
0
VERTEX
8
0
10
4310
20
12957
0
VERTEX
8
0
10
4293
20
12840
0
SEQEND
0
POLYLINE
8
0
62
5
66
1
40
1
41
1
0
VERTEX
8
0
10
4360
20
12950
0
VERTEX
8
0
10
4341
20
12833
0
SEQEND
0
POLYLINE
8
0
62
3
66
1
40
1
41
1
0
VERTEX
8
0
10
4410
20
12942
0
VERTEX
8
0
10
4391
20
12835
0
SEQEND
0
POLYLINE
8
0
62
3
66
1
40
1
41
1
0
VERTEX
8
0
10
4150
20
12857
0
VERTEX
8
0
10
4136
20
12704
0
SEQEND
0
POLYLINE
8
0
62
6
66
1
40
1
41
1
0
VERTEX
8
0
10
4802
20
12556
0
VERTEX
8
0
10
4762
20
12448
0
SEQEND
0
POLYLINE
8
0
62
3
66
1
40
1
41
1
0
VERTEX
8
0
10
4807
20
12570
0
VERTEX
8
0
10
4802
20
12556
0
SEQEND
0
POLYLINE
8
0
62
5
66
1
40
1
41
1
0
VERTEX
8
0
10
4459
20
12934
0
VERTEX
8
0
10
4436
20
12817
0
SEQEND
0
POLYLINE
8
0
62
6
66
1
40
1
41
1
0
VERTEX
8
0
10
4362
20
12674
0
VERTEX
8
0
10
4342
20
12561
0
SEQEND
0
POLYLINE
8
0
62
6
66
1
40
1
41
1
0
VERTEX
8
0
10
4855
20
12701
0
VERTEX
8
0
10
4807
20
12570
0
SEQEND
0
POLYLINE
8
0
62
3
66
1
40
1
41
1
0
VERTEX
8
0
10
6272
20
11756
0
VERTEX
8
0
10
6184
20
11695
0
SEQEND
0
POLYLINE
8
0
62
5
66
1
40
1
41
1
0
VERTEX
8
0
10
6211
20
11837
0
VERTEX
8
0
10
6117
20
11766
0
SEQEND
0
POLYLINE
8
0
62
5
66
1
40
1
41
1
0
VERTEX
8
0
10
6242
20
11797
0
VERTEX
8
0
10
6145
20
11728
0
SEQEND
0
POLYLINE
8
0
62
5
66
1
40
1
41
1
0
VERTEX
8
0
10
6184
20
11695
0
VERTEX
8
0
10
6173
20
11688
0
SEQEND
0
POLYLINE
8
0
62
5
66
1
40
1
41
1
0
VERTEX
8
0
10
6180
20
11877
0
VERTEX
8
0
10
6087
20
11805
0
SEQEND
0
POLYLINE
8
0
62
5
66
1
40
1
41
1
0
VERTEX
8
0
10
6300
20
11716
0
VERTEX
8
0
10
6201
20
11649
0
SEQEND
0
POLYLINE
8
0
62
5
66
1
40
1
41
1
0
VERTEX
8
0
10
6015
20
12067
0
VERTEX
8
0
10
5931
20
11988
0
SEQEND
0
POLYLINE
8
0
62
5
66
1
40
1
41
1
0
VERTEX
8
0
10
6049
20
12030
0
VERTEX
8
0
10
5963
20
11953
0
SEQEND
0
POLYLINE
8
0
62
5
66
1
40
1
41
1
0
VERTEX
8
0
10
6038
20
11889
0
VERTEX
8
0
10
6027
20
11879
0
SEQEND
0
POLYLINE
8
0
62
5
66
1
40
1
41
1
0
VERTEX
8
0
10
5981
20
12103
0
VERTEX
8
0
10
5897
20
12023
0
SEQEND
0
POLYLINE
8
0
62
3
66
1
40
1
41
1
0
VERTEX
8
0
10
5864
20
12058
0
VERTEX
8
0
10
5755
20
11949
0
SEQEND
0
POLYLINE
8
0
62
3
66
1
40
1
41
1
0
VERTEX
8
0
10
6027
20
11879
0
VERTEX
8
0
10
5909
20
11781
0
SEQEND
0
POLYLINE
8
0
62
6
66
1
40
1
41
1
0
VERTEX
8
0
10
5909
20
11781
0
VERTEX
8
0
10
5821
20
11707
0
SEQEND
0
POLYLINE
8
0
62
5
66
1
40
1
41
1
0
VERTEX
8
0
10
6377
20
11586
0
VERTEX
8
0
10
6278
20
11526
0
SEQEND
0
POLYLINE
8
0
62
5
66
1
40
1
41
1
0
VERTEX
8
0
10
6427
20
11499
0
VERTEX
8
0
10
6327
20
11443
0
SEQEND
0
POLYLINE
8
0
62
5
66
1
40
1
41
1
0
VERTEX
8
0
10
6451
20
11455
0
VERTEX
8
0
10
6350
20
11400
0
SEQEND
0
POLYLINE
8
0
62
6
66
1
40
1
41
1
0
VERTEX
8
0
10
6403
20
11542
0
VERTEX
8
0
10
6316
20
11492
0
VERTEX
8
0
10
6314
20
11491
0
SEQEND
0
POLYLINE
8
0
62
5
66
1
40
1
41
1
0
VERTEX
8
0
10
6314
20
11491
0
VERTEX
8
0
10
6303
20
11485
0
SEQEND
0
POLYLINE
8
0
62
3
66
1
40
1
41
1
0
VERTEX
8
0
10
6180
20
11413
0
VERTEX
8
0
10
6170
20
11408
0
SEQEND
0
POLYLINE
8
0
62
5
66
1
40
1
41
1
0
VERTEX
8
0
10
6475
20
11410
0
VERTEX
8
0
10
6372
20
11358
0
SEQEND
0
POLYLINE
8
0
62
6
66
1
40
1
41
1
0
VERTEX
8
0
10
6303
20
11485
0
VERTEX
8
0
10
6180
20
11413
0
SEQEND
0
POLYLINE
8
0
62
3
66
1
40
1
41
1
0
VERTEX
8
0
10
6414
20
11271
0
VERTEX
8
0
10
6275
20
11206
0
SEQEND
0
POLYLINE
8
0
62
5
66
1
40
1
41
1
0
VERTEX
8
0
10
6083
20
11992
0
VERTEX
8
0
10
5995
20
11916
0
SEQEND
0
POLYLINE
8
0
62
5
66
1
40
1
41
1
0
VERTEX
8
0
10
6324
20
11671
0
VERTEX
8
0
10
6227
20
11608
0
SEQEND
0
POLYLINE
8
0
62
5
66
1
40
1
41
1
0
VERTEX
8
0
10
6351
20
11629
0
VERTEX
8
0
10
6253
20
11568
0
SEQEND
0
POLYLINE
8
0
62
3
66
1
40
1
41
1
0
VERTEX
8
0
10
6116
20
11954
0
VERTEX
8
0
10
6038
20
11889
0
SEQEND
0
POLYLINE
8
0
62
5
66
1
40
1
41
1
0
VERTEX
8
0
10
6148
20
11916
0
VERTEX
8
0
10
6057
20
11842
0
SEQEND
0
POLYLINE
8
0
62
6
66
1
40
1
41
1
0
VERTEX
8
0
10
6170
20
11408
0
VERTEX
8
0
10
6070
20
11350
0
SEQEND
0
POLYLINE
8
0
62
3
66
1
40
1
41
1
0
VERTEX
8
0
10
6173
20
11688
0
VERTEX
8
0
10
6047
20
11600
0
SEQEND
0
POLYLINE
8
0
62
6
66
1
40
1
41
1
0
VERTEX
8
0
10
5587
20
12103
0
VERTEX
8
0
10
5513
20
12015
0
SEQEND
0
POLYLINE
8
0
62
6
66
1
40
1
41
1
0
VERTEX
8
0
10
6362
20
10995
0
VERTEX
8
0
10
6254
20
10956
0
SEQEND
0
POLYLINE
8
0
62
6
66
1
40
1
41
1
0
VERTEX
8
0
10
6014
20
10294
0
VERTEX
8
0
10
6021
20
10102
0
VERTEX
8
0
10
6012
20
9888
0
VERTEX
8
0
10
5983
20
9682
0
VERTEX
8
0
10
5935
20
9484
0
VERTEX
8
0
10
5867
20
9292
0
VERTEX
8
0
10
5781
20
9110
0
VERTEX
8
0
10
5674
20
8935
0
VERTEX
8
0
10
5548
20
8769
0
VERTEX
8
0
10
5402
20
8609
0
VERTEX
8
0
10
5244
20
8465
0
VERTEX
8
0
10
5078
20
8339
0
VERTEX
8
0
10
4904
20
8233
0
VERTEX
8
0
10
4720
20
8145
0
VERTEX
8
0
10
4530
20
8078
0
VERTEX
8
0
10
4331
20
8029
0
VERTEX
8
0
10
4125
20
8000
0
VERTEX
8
0
10
3909
20
7990
0
VERTEX
8
0
10
3695
20
8000
0
VERTEX
8
0
10
3489
20
8029
0
VERTEX
8
0
10
3291
20
8078
0
VERTEX
8
0
10
3099
20
8145
0
VERTEX
8
0
10
2917
20
8233
0
VERTEX
8
0
10
2741
20
8339
0
VERTEX
8
0
10
2575
20
8465
0
VERTEX
8
0
10
2415
20
8609
0
VERTEX
8
0
10
2271
20
8769
0
VERTEX
8
0
10
2145
20
8935
0
VERTEX
8
0
10
2039
20
9110
0
VERTEX
8
0
10
1952
20
9292
0
VERTEX
8
0
10
1885
20
9484
0
VERTEX
8
0
10
1836
20
9682
0
VERTEX
8
0
10
1807
20
9888
0
VERTEX
8
0
10
1797
20
10102
0
VERTEX
8
0
10
1805
20
10294
0
VERTEX
8
0
10
1829
20
10479
0
VERTEX
8
0
10
1867
20
10658
0
VERTEX
8
0
10
1921
20
10831
0
VERTEX
8
0
10
1989
20
10996
0
VERTEX
8
0
10
2073
20
11156
0
VERTEX
8
0
10
2172
20
11309
0
VERTEX
8
0
10
2286
20
11456
0
VERTEX
8
0
10
2415
20
11596
0
VERTEX
8
0
10
2575
20
11742
0
VERTEX
8
0
10
2741
20
11867
0
VERTEX
8
0
10
2917
20
11974
0
VERTEX
8
0
10
3099
20
12060
0
VERTEX
8
0
10
3291
20
12128
0
VERTEX
8
0
10
3489
20
12176
0
VERTEX
8
0
10
3695
20
12205
0
VERTEX
8
0
10
3909
20
12214
0
VERTEX
8
0
10
4125
20
12205
0
VERTEX
8
0
10
4331
20
12176
0
VERTEX
8
0
10
4530
20
12128
0
VERTEX
8
0
10
4720
20
12060
0
VERTEX
8
0
10
4904
20
11974
0
VERTEX
8
0
10
5078
20
11867
0
VERTEX
8
0
10
5244
20
11742
0
VERTEX
8
0
10
5402
20
11596
0
VERTEX
8
0
10
5533
20
11456
0
VERTEX
8
0
10
5647
20
11309
0
VERTEX
8
0
10
5747
20
11156
0
VERTEX
8
0
10
5830
20
10996
0
VERTEX
8
0
10
5900
20
10831
0
VERTEX
8
0
10
5953
20
10658
0
VERTEX
8
0
10
5992
20
10479
0
VERTEX
8
0
10
6014
20
10294
0
SEQEND
0
POLYLINE
8
0
62
5
66
1
40
1
41
1
0
VERTEX
8
0
10
5910
20
12174
0
VERTEX
8
0
10
5829
20
12091
0
SEQEND
0
POLYLINE
8
0
62
5
66
1
40
1
41
1
0
VERTEX
8
0
10
5945
20
12139
0
VERTEX
8
0
10
5864
20
12058
0
SEQEND
0
POLYLINE
8
0
62
6
66
1
40
1
41
1
0
VERTEX
8
0
10
4894
20
12809
0
VERTEX
8
0
10
4859
20
12714
0
SEQEND
0
POLYLINE
8
0
62
3
66
1
40
1
41
1
0
VERTEX
8
0
10
5686
20
12220
0
VERTEX
8
0
10
5587
20
12103
0
SEQEND
0
POLYLINE
8
0
62
5
66
1
40
1
41
1
0
VERTEX
8
0
10
1944
20
12209
0
VERTEX
8
0
10
2023
20
12125
0
SEQEND
0
POLYLINE
8
0
62
5
66
1
40
1
41
1
0
VERTEX
8
0
10
2316
20
12377
0
VERTEX
8
0
10
2323
20
12367
0
SEQEND
0
POLYLINE
8
0
62
5
66
1
40
1
41
1
0
VERTEX
8
0
10
2296
20
12494
0
VERTEX
8
0
10
2362
20
12395
0
SEQEND
0
POLYLINE
8
0
62
5
66
1
40
1
41
1
0
VERTEX
8
0
10
2340
20
12518
0
VERTEX
8
0
10
2403
20
12421
0
SEQEND
0
POLYLINE
8
0
62
3
66
1
40
1
41
1
0
VERTEX
8
0
10
2255
20
12465
0
VERTEX
8
0
10
2316
20
12377
0
SEQEND
0
POLYLINE
8
0
62
5
66
1
40
1
41
1
0
VERTEX
8
0
10
2095
20
12342
0
VERTEX
8
0
10
2169
20
12251
0
SEQEND
0
POLYLINE
8
0
62
3
66
1
40
1
41
1
0
VERTEX
8
0
10
2057
20
12309
0
VERTEX
8
0
10
2122
20
12231
0
SEQEND
0
POLYLINE
8
0
62
5
66
1
40
1
41
1
0
VERTEX
8
0
10
2122
20
12231
0
VERTEX
8
0
10
2132
20
12220
0
SEQEND
0
POLYLINE
8
0
62
5
66
1
40
1
41
1
0
VERTEX
8
0
10
2174
20
12405
0
VERTEX
8
0
10
2245
20
12311
0
SEQEND
0
POLYLINE
8
0
62
5
66
1
40
1
41
1
0
VERTEX
8
0
10
2214
20
12435
0
VERTEX
8
0
10
2283
20
12339
0
SEQEND
0
POLYLINE
8
0
62
5
66
1
40
1
41
1
0
VERTEX
8
0
10
2134
20
12373
0
VERTEX
8
0
10
2206
20
12281
0
SEQEND
0
POLYLINE
8
0
62
3
66
1
40
1
41
1
0
VERTEX
8
0
10
2323
20
12367
0
VERTEX
8
0
10
2411
20
12241
0
SEQEND
0
POLYLINE
8
0
62
5
66
1
40
1
41
1
0
VERTEX
8
0
10
2019
20
12276
0
VERTEX
8
0
10
2095
20
12189
0
SEQEND
0
POLYLINE
8
0
62
5
66
1
40
1
41
1
0
VERTEX
8
0
10
1981
20
12243
0
VERTEX
8
0
10
2058
20
12157
0
SEQEND
0
POLYLINE
8
0
62
5
66
1
40
1
41
1
0
VERTEX
8
0
10
2971
20
12826
0
VERTEX
8
0
10
3008
20
12717
0
SEQEND
0
POLYLINE
8
0
62
5
66
1
40
1
41
1
0
VERTEX
8
0
10
2876
20
12791
0
VERTEX
8
0
10
2918
20
12684
0
SEQEND
0
POLYLINE
8
0
62
3
66
1
40
1
41
1
0
VERTEX
8
0
10
2923
20
12809
0
VERTEX
8
0
10
2959
20
12711
0
SEQEND
0
POLYLINE
8
0
62
6
66
1
40
1
41
1
0
VERTEX
8
0
10
2959
20
12711
0
VERTEX
8
0
10
2961
20
12707
0
SEQEND
0
POLYLINE
8
0
62
5
66
1
40
1
41
1
0
VERTEX
8
0
10
2961
20
12707
0
VERTEX
8
0
10
2963
20
12701
0
SEQEND
0
POLYLINE
8
0
62
3
66
1
40
1
41
1
0
VERTEX
8
0
10
3193
20
12773
0
VERTEX
8
0
10
3233
20
12625
0
SEQEND
0
POLYLINE
8
0
62
5
66
1
40
1
41
1
0
VERTEX
8
0
10
3115
20
12871
0
VERTEX
8
0
10
3146
20
12760
0
SEQEND
0
POLYLINE
8
0
62
5
66
1
40
1
41
1
0
VERTEX
8
0
10
3066
20
12857
0
VERTEX
8
0
10
3100
20
12746
0
SEQEND
0
POLYLINE
8
0
62
5
66
1
40
1
41
1
0
VERTEX
8
0
10
3019
20
12842
0
VERTEX
8
0
10
3054
20
12732
0
SEQEND
0
POLYLINE
8
0
62
5
66
1
40
1
41
1
0
VERTEX
8
0
10
3163
20
12884
0
VERTEX
8
0
10
3193
20
12773
0
SEQEND
0
POLYLINE
8
0
62
5
66
1
40
1
41
1
0
VERTEX
8
0
10
2783
20
12754
0
VERTEX
8
0
10
2828
20
12648
0
SEQEND
0
POLYLINE
8
0
62
5
66
1
40
1
41
1
0
VERTEX
8
0
10
2691
20
12713
0
VERTEX
8
0
10
2740
20
12608
0
SEQEND
0
POLYLINE
8
0
62
5
66
1
40
1
41
1
0
VERTEX
8
0
10
2737
20
12734
0
VERTEX
8
0
10
2784
20
12628
0
SEQEND
0
POLYLINE
8
0
62
6
66
1
40
1
41
1
0
VERTEX
8
0
10
2526
20
12497
0
VERTEX
8
0
10
2598
20
12374
0
SEQEND
0
POLYLINE
8
0
62
5
66
1
40
1
41
1
0
VERTEX
8
0
10
2520
20
12508
0
VERTEX
8
0
10
2526
20
12497
0
SEQEND
0
POLYLINE
8
0
62
6
66
1
40
1
41
1
0
VERTEX
8
0
10
2469
20
12597
0
VERTEX
8
0
10
2519
20
12509
0
VERTEX
8
0
10
2520
20
12508
0
SEQEND
0
POLYLINE
8
0
62
6
66
1
40
1
41
1
0
VERTEX
8
0
10
2603
20
12364
0
VERTEX
8
0
10
2661
20
12264
0
SEQEND
0
POLYLINE
8
0
62
3
66
1
40
1
41
1
0
VERTEX
8
0
10
2598
20
12374
0
VERTEX
8
0
10
2603
20
12364
0
SEQEND
0
POLYLINE
8
0
62
3
66
1
40
1
41
1
0
VERTEX
8
0
10
3010
20
12570
0
VERTEX
8
0
10
3016
20
12556
0
SEQEND
0
POLYLINE
8
0
62
6
66
1
40
1
41
1
0
VERTEX
8
0
10
3016
20
12556
0
VERTEX
8
0
10
3055
20
12448
0
SEQEND
0
POLYLINE
8
0
62
5
66
1
40
1
41
1
0
VERTEX
8
0
10
2556
20
12645
0
VERTEX
8
0
10
2611
20
12544
0
SEQEND
0
POLYLINE
8
0
62
5
66
1
40
1
41
1
0
VERTEX
8
0
10
2646
20
12691
0
VERTEX
8
0
10
2696
20
12587
0
SEQEND
0
POLYLINE
8
0
62
5
66
1
40
1
41
1
0
VERTEX
8
0
10
2601
20
12669
0
VERTEX
8
0
10
2653
20
12566
0
SEQEND
0
POLYLINE
8
0
62
5
66
1
40
1
41
1
0
VERTEX
8
0
10
2512
20
12621
0
VERTEX
8
0
10
2568
20
12521
0
SEQEND
0
POLYLINE
8
0
62
5
66
1
40
1
41
1
0
VERTEX
8
0
10
2830
20
12773
0
VERTEX
8
0
10
2873
20
12666
0
SEQEND
0
POLYLINE
8
0
62
3
66
1
40
1
41
1
0
VERTEX
8
0
10
2740
20
12608
0
VERTEX
8
0
10
2805
20
12469
0
SEQEND
0
POLYLINE
8
0
62
6
66
1
40
1
41
1
0
VERTEX
8
0
10
2963
20
12701
0
VERTEX
8
0
10
3010
20
12570
0
SEQEND
0
POLYLINE
8
0
62
5
66
1
40
1
41
1
0
VERTEX
8
0
10
2425
20
12571
0
VERTEX
8
0
10
2485
20
12472
0
SEQEND
0
POLYLINE
8
0
62
5
66
1
40
1
41
1
0
VERTEX
8
0
10
2382
20
12545
0
VERTEX
8
0
10
2443
20
12447
0
SEQEND
0
POLYLINE
8
0
62
5
66
1
40
1
41
1
0
VERTEX
8
0
10
1518
20
11715
0
VERTEX
8
0
10
1616
20
11649
0
SEQEND
0
POLYLINE
8
0
62
3
66
1
40
1
41
1
0
VERTEX
8
0
10
1502
20
11492
0
VERTEX
8
0
10
1478
20
11505
0
SEQEND
0
POLYLINE
8
0
62
5
66
1
40
1
41
1
0
VERTEX
8
0
10
1514
20
11485
0
VERTEX
8
0
10
1502
20
11492
0
SEQEND
0
POLYLINE
8
0
62
3
66
1
40
1
41
1
0
VERTEX
8
0
10
1533
20
11474
0
VERTEX
8
0
10
1514
20
11485
0
SEQEND
0
POLYLINE
8
0
62
6
66
1
40
1
41
1
0
VERTEX
8
0
10
1478
20
11505
0
VERTEX
8
0
10
1533
20
11474
0
SEQEND
0
POLYLINE
8
0
62
5
66
1
40
1
41
1
0
VERTEX
8
0
10
1440
20
11586
0
VERTEX
8
0
10
1539
20
11526
0
SEQEND
0
POLYLINE
8
0
62
5
66
1
40
1
41
1
0
VERTEX
8
0
10
1238
20
11181
0
VERTEX
8
0
10
1345
20
11138
0
SEQEND
0
POLYLINE
8
0
62
5
66
1
40
1
41
1
0
VERTEX
8
0
10
1257
20
11228
0
VERTEX
8
0
10
1363
20
11183
0
SEQEND
0
POLYLINE
8
0
62
5
66
1
40
1
41
1
0
VERTEX
8
0
10
1298
20
11320
0
VERTEX
8
0
10
1403
20
11271
0
SEQEND
0
POLYLINE
8
0
62
5
66
1
40
1
41
1
0
VERTEX
8
0
10
1277
20
11274
0
VERTEX
8
0
10
1383
20
11227
0
SEQEND
0
POLYLINE
8
0
62
6
66
1
40
1
41
1
0
VERTEX
8
0
10
1414
20
11542
0
VERTEX
8
0
10
1478
20
11505
0
SEQEND
0
POLYLINE
8
0
62
5
66
1
40
1
41
1
0
VERTEX
8
0
10
1320
20
11365
0
VERTEX
8
0
10
1424
20
11315
0
SEQEND
0
POLYLINE
8
0
62
5
66
1
40
1
41
1
0
VERTEX
8
0
10
1342
20
11410
0
VERTEX
8
0
10
1445
20
11358
0
SEQEND
0
POLYLINE
8
0
62
5
66
1
40
1
41
1
0
VERTEX
8
0
10
1366
20
11455
0
VERTEX
8
0
10
1467
20
11400
0
SEQEND
0
POLYLINE
8
0
62
5
66
1
40
1
41
1
0
VERTEX
8
0
10
1390
20
11499
0
VERTEX
8
0
10
1490
20
11443
0
SEQEND
0
POLYLINE
8
0
62
3
66
1
40
1
41
1
0
VERTEX
8
0
10
1403
20
11271
0
VERTEX
8
0
10
1542
20
11206
0
SEQEND
0
POLYLINE
8
0
62
5
66
1
40
1
41
1
0
VERTEX
8
0
10
1489
20
11673
0
VERTEX
8
0
10
1590
20
11608
0
SEQEND
0
POLYLINE
8
0
62
5
66
1
40
1
41
1
0
VERTEX
8
0
10
1466
20
11629
0
VERTEX
8
0
10
1564
20
11568
0
SEQEND
0
POLYLINE
8
0
62
5
66
1
40
1
41
1
0
VERTEX
8
0
10
1297
20
11053
0
VERTEX
8
0
10
1310
20
11048
0
SEQEND
0
POLYLINE
8
0
62
6
66
1
40
1
41
1
0
VERTEX
8
0
10
1310
20
11048
0
VERTEX
8
0
10
1441
20
11001
0
SEQEND
0
POLYLINE
8
0
62
3
66
1
40
1
41
1
0
VERTEX
8
0
10
1441
20
11001
0
VERTEX
8
0
10
1455
20
10995
0
SEQEND
0
POLYLINE
8
0
62
6
66
1
40
1
41
1
0
VERTEX
8
0
10
1455
20
10995
0
VERTEX
8
0
10
1563
20
10956
0
SEQEND
0
POLYLINE
8
0
62
3
66
1
40
1
41
1
0
VERTEX
8
0
10
1238
20
10818
0
VERTEX
8
0
10
1386
20
10778
0
SEQEND
0
POLYLINE
8
0
62
5
66
1
40
1
41
1
0
VERTEX
8
0
10
1078
20
10652
0
VERTEX
8
0
10
1194
20
10630
0
SEQEND
0
POLYLINE
8
0
62
5
66
1
40
1
41
1
0
VERTEX
8
0
10
1087
20
10702
0
VERTEX
8
0
10
1204
20
10677
0
SEQEND
0
POLYLINE
8
0
62
5
66
1
40
1
41
1
0
VERTEX
8
0
10
1176
20
10585
0
VERTEX
8
0
10
1186
20
10583
0
SEQEND
0
POLYLINE
8
0
62
3
66
1
40
1
41
1
0
VERTEX
8
0
10
1069
20
10603
0
VERTEX
8
0
10
1176
20
10585
0
SEQEND
0
POLYLINE
8
0
62
5
66
1
40
1
41
1
0
VERTEX
8
0
10
1054
20
10503
0
VERTEX
8
0
10
1171
20
10487
0
SEQEND
0
POLYLINE
8
0
62
5
66
1
40
1
41
1
0
VERTEX
8
0
10
1048
20
10453
0
VERTEX
8
0
10
1164
20
10439
0
SEQEND
0
POLYLINE
8
0
62
5
66
1
40
1
41
1
0
VERTEX
8
0
10
1043
20
10404
0
VERTEX
8
0
10
1159
20
10392
0
SEQEND
0
POLYLINE
8
0
62
5
66
1
40
1
41
1
0
VERTEX
8
0
10
1061
20
10553
0
VERTEX
8
0
10
1178
20
10535
0
SEQEND
0
POLYLINE
8
0
62
5
66
1
40
1
41
1
0
VERTEX
8
0
10
1140
20
10344
0
VERTEX
8
0
10
1154
20
10343
0
SEQEND
0
POLYLINE
8
0
62
5
66
1
40
1
41
1
0
VERTEX
8
0
10
1030
20
10153
0
VERTEX
8
0
10
1144
20
10151
0
SEQEND
0
POLYLINE
8
0
62
5
66
1
40
1
41
1
0
VERTEX
8
0
10
1031
20
10203
0
VERTEX
8
0
10
1145
20
10199
0
SEQEND
0
POLYLINE
8
0
62
5
66
1
40
1
41
1
0
VERTEX
8
0
10
1035
20
10303
0
VERTEX
8
0
10
1150
20
10295
0
SEQEND
0
POLYLINE
8
0
62
5
66
1
40
1
41
1
0
VERTEX
8
0
10
1033
20
10253
0
VERTEX
8
0
10
1147
20
10247
0
SEQEND
0
POLYLINE
8
0
62
3
66
1
40
1
41
1
0
VERTEX
8
0
10
1039
20
10354
0
VERTEX
8
0
10
1140
20
10344
0
SEQEND
0
POLYLINE
8
0
62
6
66
1
40
1
41
1
0
VERTEX
8
0
10
1337
20
10556
0
VERTEX
8
0
10
1450
20
10536
0
SEQEND
0
POLYLINE
8
0
62
5
66
1
40
1
41
1
0
VERTEX
8
0
10
1127
20
10848
0
VERTEX
8
0
10
1238
20
10818
0
SEQEND
0
POLYLINE
8
0
62
5
66
1
40
1
41
1
0
VERTEX
8
0
10
1140
20
10896
0
VERTEX
8
0
10
1251
20
10865
0
SEQEND
0
POLYLINE
8
0
62
5
66
1
40
1
41
1
0
VERTEX
8
0
10
1154
20
10945
0
VERTEX
8
0
10
1265
20
10911
0
SEQEND
0
POLYLINE
8
0
62
5
66
1
40
1
41
1
0
VERTEX
8
0
10
1169
20
10992
0
VERTEX
8
0
10
1279
20
10957
0
SEQEND
0
POLYLINE
8
0
62
5
66
1
40
1
41
1
0
VERTEX
8
0
10
1097
20
10751
0
VERTEX
8
0
10
1215
20
10724
0
SEQEND
0
POLYLINE
8
0
62
5
66
1
40
1
41
1
0
VERTEX
8
0
10
1114
20
10799
0
VERTEX
8
0
10
1226
20
10771
0
SEQEND
0
POLYLINE
8
0
62
5
66
1
40
1
41
1
0
VERTEX
8
0
10
1185
20
11040
0
VERTEX
8
0
10
1294
20
11003
0
SEQEND
0
POLYLINE
8
0
62
6
66
1
40
1
41
1
0
VERTEX
8
0
10
1202
20
11088
0
VERTEX
8
0
10
1297
20
11053
0
SEQEND
0
POLYLINE
8
0
62
3
66
1
40
1
41
1
0
VERTEX
8
0
10
1154
20
10343
0
VERTEX
8
0
10
1307
20
10330
0
SEQEND
0
POLYLINE
8
0
62
3
66
1
40
1
41
1
0
VERTEX
8
0
10
1186
20
10583
0
VERTEX
8
0
10
1337
20
10556
0
SEQEND
0
POLYLINE
8
0
62
5
66
1
40
1
41
1
0
VERTEX
8
0
10
1220
20
11135
0
VERTEX
8
0
10
1327
20
11093
0
SEQEND
0
POLYLINE
8
0
62
6
66
1
40
1
41
1
0
VERTEX
8
0
10
2230
20
12103
0
VERTEX
8
0
10
2304
20
12015
0
SEQEND
0
POLYLINE
8
0
62
5
66
1
40
1
41
1
0
VERTEX
8
0
10
1837
20
12103
0
VERTEX
8
0
10
1920
20
12023
0
SEQEND
0
POLYLINE
8
0
62
5
66
1
40
1
41
1
0
VERTEX
8
0
10
1735
20
11992
0
VERTEX
8
0
10
1822
20
11916
0
SEQEND
0
POLYLINE
8
0
62
3
66
1
40
1
41
1
0
VERTEX
8
0
10
1702
20
11954
0
VERTEX
8
0
10
1780
20
11889
0
SEQEND
0
POLYLINE
8
0
62
5
66
1
40
1
41
1
0
VERTEX
8
0
10
1780
20
11889
0
VERTEX
8
0
10
1791
20
11879
0
SEQEND
0
POLYLINE
8
0
62
5
66
1
40
1
41
1
0
VERTEX
8
0
10
1634
20
11695
0
VERTEX
8
0
10
1644
20
11688
0
SEQEND
0
POLYLINE
8
0
62
6
66
1
40
1
41
1
0
VERTEX
8
0
10
1908
20
11781
0
VERTEX
8
0
10
1996
20
11707
0
SEQEND
0
POLYLINE
8
0
62
5
66
1
40
1
41
1
0
VERTEX
8
0
10
1669
20
11916
0
VERTEX
8
0
10
1760
20
11842
0
SEQEND
0
POLYLINE
8
0
62
5
66
1
40
1
41
1
0
VERTEX
8
0
10
1768
20
12030
0
VERTEX
8
0
10
1854
20
11953
0
SEQEND
0
POLYLINE
8
0
62
5
66
1
40
1
41
1
0
VERTEX
8
0
10
1802
20
12067
0
VERTEX
8
0
10
1886
20
11988
0
SEQEND
0
POLYLINE
8
0
62
5
66
1
40
1
41
1
0
VERTEX
8
0
10
1638
20
11877
0
VERTEX
8
0
10
1730
20
11805
0
SEQEND
0
POLYLINE
8
0
62
3
66
1
40
1
41
1
0
VERTEX
8
0
10
1791
20
11879
0
VERTEX
8
0
10
1908
20
11781
0
SEQEND
0
POLYLINE
8
0
62
3
66
1
40
1
41
1
0
VERTEX
8
0
10
1953
20
12058
0
VERTEX
8
0
10
2062
20
11949
0
SEQEND
0
POLYLINE
8
0
62
3
66
1
40
1
41
1
0
VERTEX
8
0
10
1644
20
11688
0
VERTEX
8
0
10
1770
20
11600
0
SEQEND
0
POLYLINE
8
0
62
3
66
1
40
1
41
1
0
VERTEX
8
0
10
1546
20
11756
0
VERTEX
8
0
10
1634
20
11695
0
SEQEND
0
POLYLINE
8
0
62
5
66
1
40
1
41
1
0
VERTEX
8
0
10
1576
20
11797
0
VERTEX
8
0
10
1672
20
11728
0
SEQEND
0
POLYLINE
8
0
62
5
66
1
40
1
41
1
0
VERTEX
8
0
10
1607
20
11837
0
VERTEX
8
0
10
1700
20
11766
0
SEQEND
0
POLYLINE
8
0
62
5
66
1
40
1
41
1
0
VERTEX
8
0
10
1908
20
12174
0
VERTEX
8
0
10
1988
20
12091
0
SEQEND
0
POLYLINE
8
0
62
5
66
1
40
1
41
1
0
VERTEX
8
0
10
1872
20
12139
0
VERTEX
8
0
10
1953
20
12058
0
SEQEND
0
POLYLINE
8
0
62
6
66
1
40
1
41
1
0
VERTEX
8
0
10
1533
20
11474
0
VERTEX
8
0
10
1747
20
11350
0
SEQEND
0
POLYLINE
8
0
62
3
66
1
40
1
41
1
0
VERTEX
8
0
10
2132
20
12220
0
VERTEX
8
0
10
2230
20
12103
0
SEQEND
0
POLYLINE
8
0
62
6
66
1
40
1
41
1
0
VERTEX
8
0
10
1908
20
8424
0
VERTEX
8
0
10
1996
20
8498
0
SEQEND
0
POLYLINE
8
0
62
3
66
1
40
1
41
1
0
VERTEX
8
0
10
1644
20
8517
0
VERTEX
8
0
10
1770
20
8605
0
SEQEND
0
POLYLINE
8
0
62
5
66
1
40
1
41
1
0
VERTEX
8
0
10
1634
20
8510
0
VERTEX
8
0
10
1644
20
8517
0
SEQEND
0
POLYLINE
8
0
62
3
66
1
40
1
41
1
0
VERTEX
8
0
10
1702
20
8250
0
VERTEX
8
0
10
1780
20
8316
0
SEQEND
0
POLYLINE
8
0
62
5
66
1
40
1
41
1
0
VERTEX
8
0
10
1780
20
8316
0
VERTEX
8
0
10
1791
20
8325
0
SEQEND
0
POLYLINE
8
0
62
5
66
1
40
1
41
1
0
VERTEX
8
0
10
1669
20
8289
0
VERTEX
8
0
10
1760
20
8363
0
SEQEND
0
POLYLINE
8
0
62
5
66
1
40
1
41
1
0
VERTEX
8
0
10
1735
20
8212
0
VERTEX
8
0
10
1822
20
8289
0
SEQEND
0
POLYLINE
8
0
62
5
66
1
40
1
41
1
0
VERTEX
8
0
10
1768
20
8175
0
VERTEX
8
0
10
1854
20
8252
0
SEQEND
0
POLYLINE
8
0
62
5
66
1
40
1
41
1
0
VERTEX
8
0
10
1638
20
8327
0
VERTEX
8
0
10
1730
20
8400
0
SEQEND
0
POLYLINE
8
0
62
3
66
1
40
1
41
1
0
VERTEX
8
0
10
1791
20
8325
0
VERTEX
8
0
10
1908
20
8424
0
SEQEND
0
POLYLINE
8
0
62
6
66
1
40
1
41
1
0
VERTEX
8
0
10
1337
20
9649
0
VERTEX
8
0
10
1450
20
9669
0
SEQEND
0
POLYLINE
8
0
62
5
66
1
40
1
41
1
0
VERTEX
8
0
10
1030
20
10052
0
VERTEX
8
0
10
1144
20
10054
0
SEQEND
0
POLYLINE
8
0
62
5
66
1
40
1
41
1
0
VERTEX
8
0
10
1035
20
9902
0
VERTEX
8
0
10
1150
20
9910
0
SEQEND
0
POLYLINE
8
0
62
5
66
1
40
1
41
1
0
VERTEX
8
0
10
1031
20
10002
0
VERTEX
8
0
10
1145
20
10006
0
SEQEND
0
POLYLINE
8
0
62
5
66
1
40
1
41
1
0
VERTEX
8
0
10
1033
20
9952
0
VERTEX
8
0
10
1147
20
9958
0
SEQEND
0
POLYLINE
8
0
62
5
66
1
40
1
41
1
0
VERTEX
8
0
10
1140
20
9860
0
VERTEX
8
0
10
1154
20
9861
0
SEQEND
0
POLYLINE
8
0
62
5
66
1
40
1
41
1
0
VERTEX
8
0
10
1048
20
9752
0
VERTEX
8
0
10
1164
20
9766
0
SEQEND
0
POLYLINE
8
0
62
3
66
1
40
1
41
1
0
VERTEX
8
0
10
1039
20
9851
0
VERTEX
8
0
10
1140
20
9860
0
SEQEND
0
POLYLINE
8
0
62
5
66
1
40
1
41
1
0
VERTEX
8
0
10
1043
20
9801
0
VERTEX
8
0
10
1159
20
9813
0
SEQEND
0
POLYLINE
8
0
62
5
66
1
40
1
41
1
0
VERTEX
8
0
10
1061
20
9651
0
VERTEX
8
0
10
1178
20
9670
0
SEQEND
0
POLYLINE
8
0
62
5
66
1
40
1
41
1
0
VERTEX
8
0
10
1054
20
9701
0
VERTEX
8
0
10
1171
20
9718
0
SEQEND
0
POLYLINE
8
0
62
5
66
1
40
1
41
1
0
VERTEX
8
0
10
1087
20
9503
0
VERTEX
8
0
10
1204
20
9528
0
SEQEND
0
POLYLINE
8
0
62
3
66
1
40
1
41
1
0
VERTEX
8
0
10
1069
20
9601
0
VERTEX
8
0
10
1176
20
9620
0
SEQEND
0
POLYLINE
8
0
62
5
66
1
40
1
41
1
0
VERTEX
8
0
10
1176
20
9620
0
VERTEX
8
0
10
1186
20
9622
0
SEQEND
0
POLYLINE
8
0
62
5
66
1
40
1
41
1
0
VERTEX
8
0
10
1077
20
9552
0
VERTEX
8
0
10
1194
20
9575
0
SEQEND
0
POLYLINE
8
0
62
6
66
1
40
1
41
1
0
VERTEX
8
0
10
1300
20
9153
0
VERTEX
8
0
10
1304
20
9154
0
SEQEND
0
POLYLINE
8
0
62
6
66
1
40
1
41
1
0
VERTEX
8
0
10
1455
20
9209
0
VERTEX
8
0
10
1563
20
9249
0
SEQEND
0
POLYLINE
8
0
62
3
66
1
40
1
41
1
0
VERTEX
8
0
10
1441
20
9204
0
VERTEX
8
0
10
1455
20
9209
0
SEQEND
0
POLYLINE
8
0
62
6
66
1
40
1
41
1
0
VERTEX
8
0
10
1310
20
9157
0
VERTEX
8
0
10
1441
20
9204
0
SEQEND
0
POLYLINE
8
0
62
5
66
1
40
1
41
1
0
VERTEX
8
0
10
1304
20
9154
0
VERTEX
8
0
10
1310
20
9157
0
SEQEND
0
POLYLINE
8
0
62
3
66
1
40
1
41
1
0
VERTEX
8
0
10
1238
20
9387
0
VERTEX
8
0
10
1386
20
9427
0
SEQEND
0
POLYLINE
8
0
62
5
66
1
40
1
41
1
0
VERTEX
8
0
10
1154
20
9260
0
VERTEX
8
0
10
1265
20
9294
0
SEQEND
0
POLYLINE
8
0
62
5
66
1
40
1
41
1
0
VERTEX
8
0
10
1185
20
9165
0
VERTEX
8
0
10
1294
20
9202
0
SEQEND
0
POLYLINE
8
0
62
5
66
1
40
1
41
1
0
VERTEX
8
0
10
1169
20
9213
0
VERTEX
8
0
10
1279
20
9248
0
SEQEND
0
POLYLINE
8
0
62
5
66
1
40
1
41
1
0
VERTEX
8
0
10
1114
20
9406
0
VERTEX
8
0
10
1226
20
9434
0
SEQEND
0
POLYLINE
8
0
62
5
66
1
40
1
41
1
0
VERTEX
8
0
10
1102
20
9455
0
VERTEX
8
0
10
1215
20
9481
0
SEQEND
0
POLYLINE
8
0
62
6
66
1
40
1
41
1
0
VERTEX
8
0
10
1029
20
10102
0
VERTEX
8
0
10
1413
20
10102
0
SEQEND
0
POLYLINE
8
0
62
5
66
1
40
1
41
1
0
VERTEX
8
0
10
1140
20
9309
0
VERTEX
8
0
10
1251
20
9340
0
SEQEND
0
POLYLINE
8
0
62
5
66
1
40
1
41
1
0
VERTEX
8
0
10
1127
20
9357
0
VERTEX
8
0
10
1238
20
9387
0
SEQEND
0
POLYLINE
8
0
62
3
66
1
40
1
41
1
0
VERTEX
8
0
10
1186
20
9622
0
VERTEX
8
0
10
1337
20
9649
0
SEQEND
0
POLYLINE
8
0
62
3
66
1
40
1
41
1
0
VERTEX
8
0
10
1154
20
9861
0
VERTEX
8
0
10
1307
20
9875
0
SEQEND
0
POLYLINE
8
0
62
5
66
1
40
1
41
1
0
VERTEX
8
0
10
1238
20
9024
0
VERTEX
8
0
10
1345
20
9067
0
SEQEND
0
POLYLINE
8
0
62
5
66
1
40
1
41
1
0
VERTEX
8
0
10
1220
20
9070
0
VERTEX
8
0
10
1327
20
9112
0
SEQEND
0
POLYLINE
8
0
62
5
66
1
40
1
41
1
0
VERTEX
8
0
10
1277
20
8931
0
VERTEX
8
0
10
1383
20
8978
0
SEQEND
0
POLYLINE
8
0
62
5
66
1
40
1
41
1
0
VERTEX
8
0
10
1257
20
8977
0
VERTEX
8
0
10
1363
20
9022
0
SEQEND
0
POLYLINE
8
0
62
6
66
1
40
1
41
1
0
VERTEX
8
0
10
1414
20
8662
0
VERTEX
8
0
10
1507
20
8715
0
VERTEX
8
0
10
1508
20
8716
0
SEQEND
0
POLYLINE
8
0
62
6
66
1
40
1
41
1
0
VERTEX
8
0
10
1520
20
8723
0
VERTEX
8
0
10
1525
20
8726
0
VERTEX
8
0
10
1527
20
8727
0
VERTEX
8
0
10
1747
20
8854
0
SEQEND
0
POLYLINE
8
0
62
6
66
1
40
1
41
1
0
VERTEX
8
0
10
1508
20
8716
0
VERTEX
8
0
10
1520
20
8723
0
SEQEND
0
POLYLINE
8
0
62
3
66
1
40
1
41
1
0
VERTEX
8
0
10
1520
20
8723
0
VERTEX
8
0
10
1514
20
8720
0
SEQEND
0
POLYLINE
8
0
62
5
66
1
40
1
41
1
0
VERTEX
8
0
10
1514
20
8720
0
VERTEX
8
0
10
1508
20
8716
0
SEQEND
0
POLYLINE
8
0
62
5
66
1
40
1
41
1
0
VERTEX
8
0
10
1342
20
8795
0
VERTEX
8
0
10
1445
20
8847
0
SEQEND
0
POLYLINE
8
0
62
5
66
1
40
1
41
1
0
VERTEX
8
0
10
1366
20
8750
0
VERTEX
8
0
10
1467
20
8805
0
SEQEND
0
POLYLINE
8
0
62
5
66
1
40
1
41
1
0
VERTEX
8
0
10
1390
20
8706
0
VERTEX
8
0
10
1490
20
8762
0
SEQEND
0
POLYLINE
8
0
62
3
66
1
40
1
41
1
0
VERTEX
8
0
10
1403
20
8934
0
VERTEX
8
0
10
1542
20
8999
0
SEQEND
0
POLYLINE
8
0
62
5
66
1
40
1
41
1
0
VERTEX
8
0
10
1298
20
8885
0
VERTEX
8
0
10
1403
20
8934
0
SEQEND
0
POLYLINE
8
0
62
5
66
1
40
1
41
1
0
VERTEX
8
0
10
1320
20
8840
0
VERTEX
8
0
10
1424
20
8890
0
SEQEND
0
POLYLINE
8
0
62
5
66
1
40
1
41
1
0
VERTEX
8
0
10
1517
20
8489
0
VERTEX
8
0
10
1616
20
8556
0
SEQEND
0
POLYLINE
8
0
62
5
66
1
40
1
41
1
0
VERTEX
8
0
10
1466
20
8576
0
VERTEX
8
0
10
1564
20
8637
0
SEQEND
0
POLYLINE
8
0
62
5
66
1
40
1
41
1
0
VERTEX
8
0
10
1493
20
8534
0
VERTEX
8
0
10
1590
20
8597
0
SEQEND
0
POLYLINE
8
0
62
5
66
1
40
1
41
1
0
VERTEX
8
0
10
1440
20
8619
0
VERTEX
8
0
10
1539
20
8679
0
SEQEND
0
POLYLINE
8
0
62
3
66
1
40
1
41
1
0
VERTEX
8
0
10
1202
20
9117
0
VERTEX
8
0
10
1300
20
9153
0
SEQEND
0
POLYLINE
8
0
62
6
66
1
40
1
41
1
0
VERTEX
8
0
10
2661
20
7941
0
VERTEX
8
0
10
2537
20
7726
0
VERTEX
8
0
10
2506
20
7672
0
VERTEX
8
0
10
2469
20
7608
0
SEQEND
0
POLYLINE
8
0
62
3
66
1
40
1
41
1
0
VERTEX
8
0
10
2506
20
7672
0
VERTEX
8
0
10
2519
20
7696
0
SEQEND
0
POLYLINE
8
0
62
5
66
1
40
1
41
1
0
VERTEX
8
0
10
2519
20
7696
0
VERTEX
8
0
10
2526
20
7708
0
SEQEND
0
POLYLINE
8
0
62
3
66
1
40
1
41
1
0
VERTEX
8
0
10
2526
20
7708
0
VERTEX
8
0
10
2537
20
7726
0
SEQEND
0
POLYLINE
8
0
62
5
66
1
40
1
41
1
0
VERTEX
8
0
10
2737
20
7471
0
VERTEX
8
0
10
2784
20
7577
0
SEQEND
0
POLYLINE
8
0
62
5
66
1
40
1
41
1
0
VERTEX
8
0
10
2691
20
7492
0
VERTEX
8
0
10
2740
20
7597
0
SEQEND
0
POLYLINE
8
0
62
5
66
1
40
1
41
1
0
VERTEX
8
0
10
2783
20
7451
0
VERTEX
8
0
10
2828
20
7557
0
SEQEND
0
POLYLINE
8
0
62
5
66
1
40
1
41
1
0
VERTEX
8
0
10
2601
20
7536
0
VERTEX
8
0
10
2653
20
7639
0
SEQEND
0
POLYLINE
8
0
62
5
66
1
40
1
41
1
0
VERTEX
8
0
10
2646
20
7514
0
VERTEX
8
0
10
2696
20
7618
0
SEQEND
0
POLYLINE
8
0
62
3
66
1
40
1
41
1
0
VERTEX
8
0
10
3193
20
7432
0
VERTEX
8
0
10
3233
20
7580
0
SEQEND
0
POLYLINE
8
0
62
3
66
1
40
1
41
1
0
VERTEX
8
0
10
3010
20
7634
0
VERTEX
8
0
10
3016
20
7649
0
SEQEND
0
POLYLINE
8
0
62
6
66
1
40
1
41
1
0
VERTEX
8
0
10
2963
20
7504
0
VERTEX
8
0
10
3010
20
7634
0
SEQEND
0
POLYLINE
8
0
62
5
66
1
40
1
41
1
0
VERTEX
8
0
10
2958
20
7491
0
VERTEX
8
0
10
2963
20
7504
0
SEQEND
0
POLYLINE
8
0
62
5
66
1
40
1
41
1
0
VERTEX
8
0
10
2876
20
7414
0
VERTEX
8
0
10
2918
20
7521
0
SEQEND
0
POLYLINE
8
0
62
5
66
1
40
1
41
1
0
VERTEX
8
0
10
2971
20
7379
0
VERTEX
8
0
10
3008
20
7488
0
SEQEND
0
POLYLINE
8
0
62
5
66
1
40
1
41
1
0
VERTEX
8
0
10
3066
20
7348
0
VERTEX
8
0
10
3100
20
7459
0
SEQEND
0
POLYLINE
8
0
62
6
66
1
40
1
41
1
0
VERTEX
8
0
10
2923
20
7396
0
VERTEX
8
0
10
2958
20
7491
0
SEQEND
0
POLYLINE
8
0
62
5
66
1
40
1
41
1
0
VERTEX
8
0
10
3019
20
7363
0
VERTEX
8
0
10
3054
20
7473
0
SEQEND
0
POLYLINE
8
0
62
5
66
1
40
1
41
1
0
VERTEX
8
0
10
3163
20
7321
0
VERTEX
8
0
10
3193
20
7432
0
SEQEND
0
POLYLINE
8
0
62
5
66
1
40
1
41
1
0
VERTEX
8
0
10
3115
20
7334
0
VERTEX
8
0
10
3146
20
7445
0
SEQEND
0
POLYLINE
8
0
62
5
66
1
40
1
41
1
0
VERTEX
8
0
10
2512
20
7584
0
VERTEX
8
0
10
2568
20
7684
0
SEQEND
0
POLYLINE
8
0
62
5
66
1
40
1
41
1
0
VERTEX
8
0
10
2556
20
7560
0
VERTEX
8
0
10
2611
20
7661
0
SEQEND
0
POLYLINE
8
0
62
5
66
1
40
1
41
1
0
VERTEX
8
0
10
2830
20
7432
0
VERTEX
8
0
10
2873
20
7539
0
SEQEND
0
POLYLINE
8
0
62
6
66
1
40
1
41
1
0
VERTEX
8
0
10
3016
20
7649
0
VERTEX
8
0
10
3055
20
7757
0
SEQEND
0
POLYLINE
8
0
62
3
66
1
40
1
41
1
0
VERTEX
8
0
10
2740
20
7597
0
VERTEX
8
0
10
2805
20
7736
0
SEQEND
0
POLYLINE
8
0
62
5
66
1
40
1
41
1
0
VERTEX
8
0
10
2122
20
7973
0
VERTEX
8
0
10
2132
20
7984
0
SEQEND
0
POLYLINE
8
0
62
5
66
1
40
1
41
1
0
VERTEX
8
0
10
2298
20
7715
0
VERTEX
8
0
10
2362
20
7810
0
SEQEND
0
POLYLINE
8
0
62
5
66
1
40
1
41
1
0
VERTEX
8
0
10
2340
20
7687
0
VERTEX
8
0
10
2403
20
7784
0
SEQEND
0
POLYLINE
8
0
62
3
66
1
40
1
41
1
0
VERTEX
8
0
10
2255
20
7739
0
VERTEX
8
0
10
2316
20
7827
0
SEQEND
0
POLYLINE
8
0
62
5
66
1
40
1
41
1
0
VERTEX
8
0
10
2316
20
7827
0
VERTEX
8
0
10
2323
20
7838
0
SEQEND
0
POLYLINE
8
0
62
5
66
1
40
1
41
1
0
VERTEX
8
0
10
2174
20
7800
0
VERTEX
8
0
10
2245
20
7894
0
SEQEND
0
POLYLINE
8
0
62
3
66
1
40
1
41
1
0
VERTEX
8
0
10
2057
20
7895
0
VERTEX
8
0
10
2122
20
7973
0
SEQEND
0
POLYLINE
8
0
62
5
66
1
40
1
41
1
0
VERTEX
8
0
10
2214
20
7769
0
VERTEX
8
0
10
2283
20
7866
0
SEQEND
0
POLYLINE
8
0
62
5
66
1
40
1
41
1
0
VERTEX
8
0
10
2095
20
7863
0
VERTEX
8
0
10
2169
20
7954
0
SEQEND
0
POLYLINE
8
0
62
5
66
1
40
1
41
1
0
VERTEX
8
0
10
2134
20
7831
0
VERTEX
8
0
10
2206
20
7924
0
SEQEND
0
POLYLINE
8
0
62
3
66
1
40
1
41
1
0
VERTEX
8
0
10
2132
20
7984
0
VERTEX
8
0
10
2230
20
8102
0
SEQEND
0
POLYLINE
8
0
62
3
66
1
40
1
41
1
0
VERTEX
8
0
10
2323
20
7838
0
VERTEX
8
0
10
2411
20
7964
0
SEQEND
0
POLYLINE
8
0
62
5
66
1
40
1
41
1
0
VERTEX
8
0
10
1944
20
7996
0
VERTEX
8
0
10
2023
20
8080
0
SEQEND
0
POLYLINE
8
0
62
5
66
1
40
1
41
1
0
VERTEX
8
0
10
1908
20
8030
0
VERTEX
8
0
10
1988
20
8114
0
SEQEND
0
POLYLINE
8
0
62
5
66
1
40
1
41
1
0
VERTEX
8
0
10
1872
20
8066
0
VERTEX
8
0
10
1953
20
8147
0
SEQEND
0
POLYLINE
8
0
62
5
66
1
40
1
41
1
0
VERTEX
8
0
10
1981
20
7962
0
VERTEX
8
0
10
2058
20
8048
0
SEQEND
0
POLYLINE
8
0
62
5
66
1
40
1
41
1
0
VERTEX
8
0
10
2019
20
7928
0
VERTEX
8
0
10
2095
20
8016
0
SEQEND
0
POLYLINE
8
0
62
5
66
1
40
1
41
1
0
VERTEX
8
0
10
2425
20
7634
0
VERTEX
8
0
10
2485
20
7733
0
SEQEND
0
POLYLINE
8
0
62
5
66
1
40
1
41
1
0
VERTEX
8
0
10
2382
20
7660
0
VERTEX
8
0
10
2443
20
7758
0
SEQEND
0
POLYLINE
8
0
62
5
66
1
40
1
41
1
0
VERTEX
8
0
10
1576
20
8407
0
VERTEX
8
0
10
1672
20
8477
0
SEQEND
0
POLYLINE
8
0
62
3
66
1
40
1
41
1
0
VERTEX
8
0
10
1546
20
8448
0
VERTEX
8
0
10
1634
20
8510
0
SEQEND
0
POLYLINE
8
0
62
5
66
1
40
1
41
1
0
VERTEX
8
0
10
1837
20
8101
0
VERTEX
8
0
10
1920
20
8182
0
SEQEND
0
POLYLINE
8
0
62
5
66
1
40
1
41
1
0
VERTEX
8
0
10
1802
20
8138
0
VERTEX
8
0
10
1886
20
8217
0
SEQEND
0
POLYLINE
8
0
62
5
66
1
40
1
41
1
0
VERTEX
8
0
10
1606
20
8367
0
VERTEX
8
0
10
1700
20
8439
0
SEQEND
0
POLYLINE
8
0
62
3
66
1
40
1
41
1
0
VERTEX
8
0
10
1953
20
8147
0
VERTEX
8
0
10
2062
20
8256
0
SEQEND
0
POLYLINE
8
0
62
6
66
1
40
1
41
1
0
VERTEX
8
0
10
2230
20
8102
0
VERTEX
8
0
10
2304
20
8190
0
SEQEND
0
POLYLINE
8
0
62
6
66
1
40
1
41
1
0
VERTEX
8
0
10
6362
20
9209
0
VERTEX
8
0
10
6254
20
9249
0
SEQEND
0
POLYLINE
8
0
62
3
66
1
40
1
41
1
0
VERTEX
8
0
10
6377
20
9204
0
VERTEX
8
0
10
6362
20
9209
0
SEQEND
0
POLYLINE
8
0
62
6
66
1
40
1
41
1
0
VERTEX
8
0
10
6403
20
8662
0
VERTEX
8
0
10
6311
20
8715
0
VERTEX
8
0
10
6310
20
8716
0
VERTEX
8
0
10
6298
20
8723
0
VERTEX
8
0
10
6292
20
8726
0
VERTEX
8
0
10
6291
20
8727
0
VERTEX
8
0
10
6070
20
8854
0
SEQEND
0
POLYLINE
8
0
62
5
66
1
40
1
41
1
0
VERTEX
8
0
10
6310
20
8716
0
VERTEX
8
0
10
6303
20
8720
0
SEQEND
0
POLYLINE
8
0
62
3
66
1
40
1
41
1
0
VERTEX
8
0
10
6303
20
8720
0
VERTEX
8
0
10
6298
20
8723
0
SEQEND
0
POLYLINE
8
0
62
5
66
1
40
1
41
1
0
VERTEX
8
0
10
6427
20
8706
0
VERTEX
8
0
10
6327
20
8762
0
SEQEND
0
POLYLINE
8
0
62
5
66
1
40
1
41
1
0
VERTEX
8
0
10
6451
20
8750
0
VERTEX
8
0
10
6350
20
8805
0
SEQEND
0
POLYLINE
8
0
62
5
66
1
40
1
41
1
0
VERTEX
8
0
10
6475
20
8795
0
VERTEX
8
0
10
6372
20
8847
0
SEQEND
0
POLYLINE
8
0
62
3
66
1
40
1
41
1
0
VERTEX
8
0
10
6414
20
8934
0
VERTEX
8
0
10
6275
20
8999
0
SEQEND
0
POLYLINE
8
0
62
5
66
1
40
1
41
1
0
VERTEX
8
0
10
6049
20
8175
0
VERTEX
8
0
10
5963
20
8252
0
SEQEND
0
POLYLINE
8
0
62
6
66
1
40
1
41
1
0
VERTEX
8
0
10
5909
20
8424
0
VERTEX
8
0
10
5821
20
8498
0
SEQEND
0
POLYLINE
8
0
62
3
66
1
40
1
41
1
0
VERTEX
8
0
10
6027
20
8325
0
VERTEX
8
0
10
5909
20
8424
0
SEQEND
0
POLYLINE
8
0
62
5
66
1
40
1
41
1
0
VERTEX
8
0
10
6038
20
8316
0
VERTEX
8
0
10
6027
20
8325
0
SEQEND
0
POLYLINE
8
0
62
5
66
1
40
1
41
1
0
VERTEX
8
0
10
6184
20
8510
0
VERTEX
8
0
10
6173
20
8517
0
SEQEND
0
POLYLINE
8
0
62
5
66
1
40
1
41
1
0
VERTEX
8
0
10
6242
20
8407
0
VERTEX
8
0
10
6145
20
8477
0
SEQEND
0
POLYLINE
8
0
62
3
66
1
40
1
41
1
0
VERTEX
8
0
10
6272
20
8448
0
VERTEX
8
0
10
6184
20
8510
0
SEQEND
0
POLYLINE
8
0
62
5
66
1
40
1
41
1
0
VERTEX
8
0
10
6211
20
8367
0
VERTEX
8
0
10
6117
20
8439
0
SEQEND
0
POLYLINE
8
0
62
5
66
1
40
1
41
1
0
VERTEX
8
0
10
6296
20
8492
0
VERTEX
8
0
10
6201
20
8556
0
SEQEND
0
POLYLINE
8
0
62
5
66
1
40
1
41
1
0
VERTEX
8
0
10
6324
20
8534
0
VERTEX
8
0
10
6227
20
8597
0
SEQEND
0
POLYLINE
8
0
62
5
66
1
40
1
41
1
0
VERTEX
8
0
10
6351
20
8576
0
VERTEX
8
0
10
6253
20
8637
0
SEQEND
0
POLYLINE
8
0
62
5
66
1
40
1
41
1
0
VERTEX
8
0
10
6180
20
8327
0
VERTEX
8
0
10
6087
20
8400
0
SEQEND
0
POLYLINE
8
0
62
5
66
1
40
1
41
1
0
VERTEX
8
0
10
6377
20
8619
0
VERTEX
8
0
10
6278
20
8679
0
SEQEND
0
POLYLINE
8
0
62
3
66
1
40
1
41
1
0
VERTEX
8
0
10
6116
20
8250
0
VERTEX
8
0
10
6038
20
8316
0
SEQEND
0
POLYLINE
8
0
62
5
66
1
40
1
41
1
0
VERTEX
8
0
10
6083
20
8212
0
VERTEX
8
0
10
5995
20
8289
0
SEQEND
0
POLYLINE
8
0
62
5
66
1
40
1
41
1
0
VERTEX
8
0
10
6149
20
8289
0
VERTEX
8
0
10
6057
20
8363
0
SEQEND
0
POLYLINE
8
0
62
3
66
1
40
1
41
1
0
VERTEX
8
0
10
6173
20
8517
0
VERTEX
8
0
10
6047
20
8605
0
SEQEND
0
POLYLINE
8
0
62
1
66
1
40
1
41
1
0
VERTEX
8
0
10
3654
20
9789
0
VERTEX
8
0
10
3659
20
9793
0
VERTEX
8
0
10
3665
20
9814
0
VERTEX
8
0
10
3638
20
9814
0
VERTEX
8
0
10
3630
20
9814
0
SEQEND
0
POLYLINE
8
0
62
1
66
1
40
1
41
1
0
VERTEX
8
0
10
3603
20
9840
0
VERTEX
8
0
10
3608
20
9844
0
VERTEX
8
0
10
3629
20
9850
0
VERTEX
8
0
10
3651
20
9843
0
VERTEX
8
0
10
3654
20
9840
0
VERTEX
8
0
10
3655
20
9839
0
SEQEND
0
POLYLINE
8
0
62
1
66
1
40
1
41
1
0
VERTEX
8
0
10
3655
20
9839
0
VERTEX
8
0
10
3665
20
9814
0
VERTEX
8
0
10
3821
20
9814
0
SEQEND
0
POLYLINE
8
0
62
3
66
1
40
1
41
1
0
VERTEX
8
0
10
3909
20
9718
0
VERTEX
8
0
10
3909
20
9814
0
SEQEND
0
POLYLINE
8
0
62
252
66
1
40
20
41
20
0
VERTEX
8
0
10
3655
20
9839
0
VERTEX
8
0
10
3894
20
10078
0
SEQEND
0
POLYLINE
8
0
62
1
66
1
40
20
41
20
0
VERTEX
8
0
10
3821
20
9814
0
VERTEX
8
0
10
3909
20
9814
0
SEQEND
0
POLYLINE
8
0
62
3
66
1
40
1
41
1
0
VERTEX
8
0
10
3909
20
9814
0
VERTEX
8
0
10
3909
20
10102
0
SEQEND
0
POLYLINE
8
0
62
252
66
1
40
20
41
20
0
VERTEX
8
0
10
3630
20
9814
0
VERTEX
8
0
10
3634
20
9818
0
VERTEX
8
0
10
3630
20
9822
0
SEQEND
0
POLYLINE
8
0
62
252
66
1
40
20
41
20
0
VERTEX
8
0
10
3655
20
9839
0
VERTEX
8
0
10
3634
20
9818
0
VERTEX
8
0
10
3638
20
9814
0
SEQEND
0
POLYLINE
8
0
62
252
66
1
40
20
41
20
0
VERTEX
8
0
10
3630
20
9814
0
VERTEX
8
0
10
3630
20
9813
0
SEQEND
0
POLYLINE
8
0
62
252
66
1
40
20
41
20
0
VERTEX
8
0
10
3629
20
9814
0
VERTEX
8
0
10
3630
20
9813
0
SEQEND
0
POLYLINE
8
0
62
1
66
1
40
1
41
1
0
VERTEX
8
0
10
3630
20
9814
0
VERTEX
8
0
10
3629
20
9814
0
SEQEND
0
POLYLINE
8
0
62
1
66
1
40
1
41
1
0
VERTEX
8
0
10
3604
20
9788
0
VERTEX
8
0
10
3603
20
9789
0
VERTEX
8
0
10
3600
20
9792
0
VERTEX
8
0
10
3593
20
9814
0
VERTEX
8
0
10
3437
20
9814
0
SEQEND
0
POLYLINE
8
0
62
1
66
1
40
1
41
1
0
VERTEX
8
0
10
3604
20
9788
0
VERTEX
8
0
10
3629
20
9778
0
VERTEX
8
0
10
3654
20
9789
0
SEQEND
0
POLYLINE
8
0
62
252
66
1
40
20
41
20
0
VERTEX
8
0
10
3630
20
9813
0
VERTEX
8
0
10
3604
20
9788
0
SEQEND
0
POLYLINE
8
0
62
252
66
1
40
20
41
20
0
VERTEX
8
0
10
3603
20
9840
0
VERTEX
8
0
10
3629
20
9814
0
SEQEND
0
POLYLINE
8
0
62
1
66
1
40
1
41
1
0
VERTEX
8
0
10
3593
20
9814
0
VERTEX
8
0
10
3603
20
9840
0
SEQEND
0
POLYLINE
8
0
62
252
66
1
40
20
41
20
0
VERTEX
8
0
10
3603
20
9840
0
VERTEX
8
0
10
3365
20
10078
0
SEQEND
0
POLYLINE
8
0
62
252
66
1
40
20
41
20
0
VERTEX
8
0
10
3654
20
9789
0
VERTEX
8
0
10
3910
20
9533
0
SEQEND
0
POLYLINE
8
0
62
252
66
1
40
20
41
20
0
VERTEX
8
0
10
3349
20
9533
0
VERTEX
8
0
10
3604
20
9788
0
SEQEND
0
POLYLINE
8
0
62
252
66
1
40
20
41
20
0
VERTEX
8
0
10
3654
20
9789
0
VERTEX
8
0
10
3638
20
9805
0
SEQEND
0
POLYLINE
8
0
62
1
66
1
40
20
41
20
0
VERTEX
8
0
10
3909
20
9814
0
VERTEX
8
0
10
4055
20
9814
0
SEQEND
0
POLYLINE
8
0
62
6
66
1
40
1
41
1
0
VERTEX
8
0
10
4362
20
7531
0
VERTEX
8
0
10
4342
20
7644
0
SEQEND
0
POLYLINE
8
0
62
3
66
1
40
1
41
1
0
VERTEX
8
0
10
4160
20
7231
0
VERTEX
8
0
10
4151
20
7334
0
SEQEND
0
POLYLINE
8
0
62
5
66
1
40
1
41
1
0
VERTEX
8
0
10
4210
20
7236
0
VERTEX
8
0
10
4198
20
7353
0
SEQEND
0
POLYLINE
8
0
62
5
66
1
40
1
41
1
0
VERTEX
8
0
10
4151
20
7334
0
VERTEX
8
0
10
4150
20
7348
0
SEQEND
0
POLYLINE
8
0
62
5
66
1
40
1
41
1
0
VERTEX
8
0
10
4109
20
7228
0
VERTEX
8
0
10
4101
20
7344
0
SEQEND
0
POLYLINE
8
0
62
5
66
1
40
1
41
1
0
VERTEX
8
0
10
4059
20
7225
0
VERTEX
8
0
10
4053
20
7341
0
SEQEND
0
POLYLINE
8
0
62
5
66
1
40
1
41
1
0
VERTEX
8
0
10
4391
20
7369
0
VERTEX
8
0
10
4389
20
7380
0
SEQEND
0
POLYLINE
8
0
62
3
66
1
40
1
41
1
0
VERTEX
8
0
10
4410
20
7261
0
VERTEX
8
0
10
4391
20
7369
0
SEQEND
0
POLYLINE
8
0
62
5
66
1
40
1
41
1
0
VERTEX
8
0
10
4360
20
7254
0
VERTEX
8
0
10
4341
20
7372
0
SEQEND
0
POLYLINE
8
0
62
5
66
1
40
1
41
1
0
VERTEX
8
0
10
4310
20
7247
0
VERTEX
8
0
10
4293
20
7365
0
SEQEND
0
POLYLINE
8
0
62
5
66
1
40
1
41
1
0
VERTEX
8
0
10
4260
20
7241
0
VERTEX
8
0
10
4245
20
7358
0
SEQEND
0
POLYLINE
8
0
62
3
66
1
40
1
41
1
0
VERTEX
8
0
10
4389
20
7380
0
VERTEX
8
0
10
4362
20
7531
0
SEQEND
0
POLYLINE
8
0
62
3
66
1
40
1
41
1
0
VERTEX
8
0
10
4150
20
7348
0
VERTEX
8
0
10
4136
20
7501
0
SEQEND
0
POLYLINE
8
0
62
3
66
1
40
1
41
1
0
VERTEX
8
0
10
4850
20
7515
0
VERTEX
8
0
10
4802
20
7649
0
SEQEND
0
POLYLINE
8
0
62
6
66
1
40
1
41
1
0
VERTEX
8
0
10
4858
20
7494
0
VERTEX
8
0
10
4857
20
7497
0
SEQEND
0
POLYLINE
8
0
62
5
66
1
40
1
41
1
0
VERTEX
8
0
10
4857
20
7497
0
VERTEX
8
0
10
4854
20
7504
0
SEQEND
0
POLYLINE
8
0
62
6
66
1
40
1
41
1
0
VERTEX
8
0
10
4854
20
7504
0
VERTEX
8
0
10
4850
20
7515
0
SEQEND
0
POLYLINE
8
0
62
3
66
1
40
1
41
1
0
VERTEX
8
0
10
4850
20
7515
0
VERTEX
8
0
10
4858
20
7494
0
VERTEX
8
0
10
4894
20
7396
0
SEQEND
0
POLYLINE
8
0
62
3
66
1
40
1
41
1
0
VERTEX
8
0
10
4624
20
7432
0
VERTEX
8
0
10
4584
20
7580
0
SEQEND
0
POLYLINE
8
0
62
5
66
1
40
1
41
1
0
VERTEX
8
0
10
4507
20
7285
0
VERTEX
8
0
10
4483
20
7398
0
SEQEND
0
POLYLINE
8
0
62
5
66
1
40
1
41
1
0
VERTEX
8
0
10
4798
20
7363
0
VERTEX
8
0
10
4763
20
7473
0
SEQEND
0
POLYLINE
8
0
62
5
66
1
40
1
41
1
0
VERTEX
8
0
10
4702
20
7334
0
VERTEX
8
0
10
4671
20
7445
0
SEQEND
0
POLYLINE
8
0
62
5
66
1
40
1
41
1
0
VERTEX
8
0
10
4751
20
7348
0
VERTEX
8
0
10
4717
20
7459
0
SEQEND
0
POLYLINE
8
0
62
5
66
1
40
1
41
1
0
VERTEX
8
0
10
4846
20
7379
0
VERTEX
8
0
10
4809
20
7488
0
SEQEND
0
POLYLINE
8
0
62
5
66
1
40
1
41
1
0
VERTEX
8
0
10
4654
20
7321
0
VERTEX
8
0
10
4624
20
7432
0
SEQEND
0
POLYLINE
8
0
62
5
66
1
40
1
41
1
0
VERTEX
8
0
10
4605
20
7308
0
VERTEX
8
0
10
4577
20
7420
0
SEQEND
0
POLYLINE
8
0
62
5
66
1
40
1
41
1
0
VERTEX
8
0
10
4556
20
7296
0
VERTEX
8
0
10
4530
20
7409
0
SEQEND
0
POLYLINE
8
0
62
5
66
1
40
1
41
1
0
VERTEX
8
0
10
4459
20
7270
0
VERTEX
8
0
10
4436
20
7388
0
SEQEND
0
POLYLINE
8
0
62
6
66
1
40
1
41
1
0
VERTEX
8
0
10
4802
20
7649
0
VERTEX
8
0
10
4762
20
7757
0
SEQEND
0
POLYLINE
8
0
62
6
66
1
40
1
41
1
0
VERTEX
8
0
10
3455
20
7531
0
VERTEX
8
0
10
3475
20
7644
0
SEQEND
0
POLYLINE
8
0
62
5
66
1
40
1
41
1
0
VERTEX
8
0
10
3310
20
7285
0
VERTEX
8
0
10
3334
20
7398
0
SEQEND
0
POLYLINE
8
0
62
5
66
1
40
1
41
1
0
VERTEX
8
0
10
3358
20
7270
0
VERTEX
8
0
10
3381
20
7388
0
SEQEND
0
POLYLINE
8
0
62
3
66
1
40
1
41
1
0
VERTEX
8
0
10
3408
20
7262
0
VERTEX
8
0
10
3426
20
7369
0
SEQEND
0
POLYLINE
8
0
62
5
66
1
40
1
41
1
0
VERTEX
8
0
10
3426
20
7369
0
VERTEX
8
0
10
3428
20
7380
0
SEQEND
0
POLYLINE
8
0
62
5
66
1
40
1
41
1
0
VERTEX
8
0
10
3458
20
7254
0
VERTEX
8
0
10
3476
20
7372
0
SEQEND
0
POLYLINE
8
0
62
5
66
1
40
1
41
1
0
VERTEX
8
0
10
3607
20
7236
0
VERTEX
8
0
10
3619
20
7353
0
SEQEND
0
POLYLINE
8
0
62
5
66
1
40
1
41
1
0
VERTEX
8
0
10
3558
20
7241
0
VERTEX
8
0
10
3572
20
7358
0
SEQEND
0
POLYLINE
8
0
62
5
66
1
40
1
41
1
0
VERTEX
8
0
10
3508
20
7247
0
VERTEX
8
0
10
3524
20
7365
0
SEQEND
0
POLYLINE
8
0
62
5
66
1
40
1
41
1
0
VERTEX
8
0
10
3261
20
7296
0
VERTEX
8
0
10
3287
20
7409
0
SEQEND
0
POLYLINE
8
0
62
3
66
1
40
1
41
1
0
VERTEX
8
0
10
3428
20
7380
0
VERTEX
8
0
10
3455
20
7531
0
SEQEND
0
POLYLINE
8
0
62
6
66
1
40
1
41
1
0
VERTEX
8
0
10
3909
20
7491
0
VERTEX
8
0
10
3909
20
7606
0
SEQEND
0
POLYLINE
8
0
62
5
66
1
40
1
41
1
0
VERTEX
8
0
10
3708
20
7228
0
VERTEX
8
0
10
3716
20
7344
0
SEQEND
0
POLYLINE
8
0
62
5
66
1
40
1
41
1
0
VERTEX
8
0
10
3758
20
7225
0
VERTEX
8
0
10
3764
20
7341
0
SEQEND
0
POLYLINE
8
0
62
5
66
1
40
1
41
1
0
VERTEX
8
0
10
3808
20
7223
0
VERTEX
8
0
10
3812
20
7339
0
SEQEND
0
POLYLINE
8
0
62
3
66
1
40
1
41
1
0
VERTEX
8
0
10
3657
20
7231
0
VERTEX
8
0
10
3667
20
7334
0
SEQEND
0
POLYLINE
8
0
62
5
66
1
40
1
41
1
0
VERTEX
8
0
10
3667
20
7334
0
VERTEX
8
0
10
3668
20
7348
0
SEQEND
0
POLYLINE
8
0
62
5
66
1
40
1
41
1
0
VERTEX
8
0
10
4009
20
7223
0
VERTEX
8
0
10
4005
20
7339
0
SEQEND
0
POLYLINE
8
0
62
5
66
1
40
1
41
1
0
VERTEX
8
0
10
3959
20
7222
0
VERTEX
8
0
10
3957
20
7338
0
SEQEND
0
POLYLINE
8
0
62
5
66
1
40
1
41
1
0
VERTEX
8
0
10
3909
20
7222
0
VERTEX
8
0
10
3909
20
7338
0
SEQEND
0
POLYLINE
8
0
62
5
66
1
40
1
41
1
0
VERTEX
8
0
10
3858
20
7222
0
VERTEX
8
0
10
3860
20
7338
0
SEQEND
0
POLYLINE
8
0
62
3
66
1
40
1
41
1
0
VERTEX
8
0
10
3909
20
7338
0
VERTEX
8
0
10
3909
20
7491
0
SEQEND
0
POLYLINE
8
0
62
3
66
1
40
1
41
1
0
VERTEX
8
0
10
3668
20
7348
0
VERTEX
8
0
10
3681
20
7501
0
SEQEND
0
POLYLINE
8
0
62
5
66
1
40
1
41
1
0
VERTEX
8
0
10
5799
20
7928
0
VERTEX
8
0
10
5722
20
8016
0
SEQEND
0
POLYLINE
8
0
62
5
66
1
40
1
41
1
0
VERTEX
8
0
10
5695
20
7973
0
VERTEX
8
0
10
5686
20
7984
0
SEQEND
0
POLYLINE
8
0
62
5
66
1
40
1
41
1
0
VERTEX
8
0
10
5836
20
7962
0
VERTEX
8
0
10
5759
20
8048
0
SEQEND
0
POLYLINE
8
0
62
5
66
1
40
1
41
1
0
VERTEX
8
0
10
5873
20
7996
0
VERTEX
8
0
10
5794
20
8080
0
SEQEND
0
POLYLINE
8
0
62
5
66
1
40
1
41
1
0
VERTEX
8
0
10
5945
20
8066
0
VERTEX
8
0
10
5864
20
8147
0
SEQEND
0
POLYLINE
8
0
62
5
66
1
40
1
41
1
0
VERTEX
8
0
10
5910
20
8030
0
VERTEX
8
0
10
5829
20
8114
0
SEQEND
0
POLYLINE
8
0
62
3
66
1
40
1
41
1
0
VERTEX
8
0
10
5761
20
7895
0
VERTEX
8
0
10
5695
20
7973
0
SEQEND
0
POLYLINE
8
0
62
5
66
1
40
1
41
1
0
VERTEX
8
0
10
5435
20
7660
0
VERTEX
8
0
10
5374
20
7758
0
SEQEND
0
POLYLINE
8
0
62
6
66
1
40
1
41
1
0
VERTEX
8
0
10
5285
20
7719
0
VERTEX
8
0
10
5284
20
7720
0
VERTEX
8
0
10
5157
20
7941
0
SEQEND
0
POLYLINE
8
0
62
5
66
1
40
1
41
1
0
VERTEX
8
0
10
5291
20
7708
0
VERTEX
8
0
10
5299
20
7695
0
SEQEND
0
POLYLINE
8
0
62
3
66
1
40
1
41
1
0
VERTEX
8
0
10
5285
20
7719
0
VERTEX
8
0
10
5291
20
7708
0
SEQEND
0
POLYLINE
8
0
62
6
66
1
40
1
41
1
0
VERTEX
8
0
10
5299
20
7695
0
VERTEX
8
0
10
5285
20
7719
0
SEQEND
0
POLYLINE
8
0
62
5
66
1
40
1
41
1
0
VERTEX
8
0
10
5604
20
7769
0
VERTEX
8
0
10
5534
20
7866
0
SEQEND
0
POLYLINE
8
0
62
3
66
1
40
1
41
1
0
VERTEX
8
0
10
5563
20
7739
0
VERTEX
8
0
10
5501
20
7827
0
SEQEND
0
POLYLINE
8
0
62
5
66
1
40
1
41
1
0
VERTEX
8
0
10
5644
20
7800
0
VERTEX
8
0
10
5572
20
7894
0
SEQEND
0
POLYLINE
8
0
62
5
66
1
40
1
41
1
0
VERTEX
8
0
10
5501
20
7827
0
VERTEX
8
0
10
5494
20
7838
0
SEQEND
0
POLYLINE
8
0
62
5
66
1
40
1
41
1
0
VERTEX
8
0
10
5477
20
7687
0
VERTEX
8
0
10
5414
20
7784
0
SEQEND
0
POLYLINE
8
0
62
5
66
1
40
1
41
1
0
VERTEX
8
0
10
5519
20
7715
0
VERTEX
8
0
10
5455
20
7810
0
SEQEND
0
POLYLINE
8
0
62
3
66
1
40
1
41
1
0
VERTEX
8
0
10
5494
20
7838
0
VERTEX
8
0
10
5406
20
7964
0
SEQEND
0
POLYLINE
8
0
62
5
66
1
40
1
41
1
0
VERTEX
8
0
10
4941
20
7414
0
VERTEX
8
0
10
4899
20
7521
0
SEQEND
0
POLYLINE
8
0
62
5
66
1
40
1
41
1
0
VERTEX
8
0
10
5216
20
7536
0
VERTEX
8
0
10
5164
20
7639
0
SEQEND
0
POLYLINE
8
0
62
5
66
1
40
1
41
1
0
VERTEX
8
0
10
5171
20
7514
0
VERTEX
8
0
10
5121
20
7618
0
SEQEND
0
POLYLINE
8
0
62
5
66
1
40
1
41
1
0
VERTEX
8
0
10
5080
20
7471
0
VERTEX
8
0
10
5033
20
7577
0
SEQEND
0
POLYLINE
8
0
62
5
66
1
40
1
41
1
0
VERTEX
8
0
10
5126
20
7492
0
VERTEX
8
0
10
5077
20
7597
0
SEQEND
0
POLYLINE
8
0
62
5
66
1
40
1
41
1
0
VERTEX
8
0
10
5034
20
7451
0
VERTEX
8
0
10
4989
20
7557
0
SEQEND
0
POLYLINE
8
0
62
5
66
1
40
1
41
1
0
VERTEX
8
0
10
4987
20
7432
0
VERTEX
8
0
10
4944
20
7539
0
SEQEND
0
POLYLINE
8
0
62
5
66
1
40
1
41
1
0
VERTEX
8
0
10
5305
20
7584
0
VERTEX
8
0
10
5249
20
7684
0
SEQEND
0
POLYLINE
8
0
62
6
66
1
40
1
41
1
0
VERTEX
8
0
10
5349
20
7608
0
VERTEX
8
0
10
5299
20
7695
0
SEQEND
0
POLYLINE
8
0
62
5
66
1
40
1
41
1
0
VERTEX
8
0
10
5392
20
7634
0
VERTEX
8
0
10
5332
20
7733
0
SEQEND
0
POLYLINE
8
0
62
5
66
1
40
1
41
1
0
VERTEX
8
0
10
5261
20
7560
0
VERTEX
8
0
10
5206
20
7661
0
SEQEND
0
POLYLINE
8
0
62
3
66
1
40
1
41
1
0
VERTEX
8
0
10
5077
20
7597
0
VERTEX
8
0
10
5012
20
7736
0
SEQEND
0
POLYLINE
8
0
62
5
66
1
40
1
41
1
0
VERTEX
8
0
10
5722
20
7862
0
VERTEX
8
0
10
5648
20
7954
0
SEQEND
0
POLYLINE
8
0
62
5
66
1
40
1
41
1
0
VERTEX
8
0
10
5684
20
7831
0
VERTEX
8
0
10
5611
20
7924
0
SEQEND
0
POLYLINE
8
0
62
3
66
1
40
1
41
1
0
VERTEX
8
0
10
5686
20
7984
0
VERTEX
8
0
10
5587
20
8102
0
SEQEND
0
POLYLINE
8
0
62
6
66
1
40
1
41
1
0
VERTEX
8
0
10
1797
20
10102
0
VERTEX
8
0
10
3909
20
10102
0
VERTEX
8
0
10
6021
20
10102
0
SEQEND
0
POLYLINE
8
0
62
5
66
1
40
1
41
1
0
VERTEX
8
0
10
5981
20
8101
0
VERTEX
8
0
10
5897
20
8182
0
SEQEND
0
POLYLINE
8
0
62
5
66
1
40
1
41
1
0
VERTEX
8
0
10
6015
20
8138
0
VERTEX
8
0
10
5931
20
8217
0
SEQEND
0
POLYLINE
8
0
62
3
66
1
40
1
41
1
0
VERTEX
8
0
10
5864
20
8147
0
VERTEX
8
0
10
5755
20
8256
0
SEQEND
0
POLYLINE
8
0
62
6
66
1
40
1
41
1
0
VERTEX
8
0
10
5587
20
8102
0
VERTEX
8
0
10
5513
20
8190
0
SEQEND
0
POLYLINE
8
0
62
6
66
1
40
1
41
1
0
VERTEX
8
0
10
1877
20
9526
0
VERTEX
8
0
10
5940
20
9526
0
SEQEND
0
POLYLINE
8
0
62
5
66
1
40
1
41
1
0
VERTEX
8
0
10
3212
20
7308
0
VERTEX
8
0
10
3240
20
7420
0
SEQEND
0
POLYLINE
8
0
62
5
66
1
40
1
41
1
0
VERTEX
8
0
10
3212
20
12897
0
VERTEX
8
0
10
3240
20
12785
0
SEQEND
0
POLYLINE
8
0
62
5
66
1
40
1
41
1
0
VERTEX
8
0
10
6519
20
8885
0
VERTEX
8
0
10
6414
20
8934
0
SEQEND
0
POLYLINE
8
0
62
5
66
1
40
1
41
1
0
VERTEX
8
0
10
6540
20
8931
0
VERTEX
8
0
10
6434
20
8978
0
SEQEND
0
POLYLINE
8
0
62
5
66
1
40
1
41
1
0
VERTEX
8
0
10
6560
20
8977
0
VERTEX
8
0
10
6454
20
9022
0
SEQEND
0
POLYLINE
8
0
62
5
66
1
40
1
41
1
0
VERTEX
8
0
10
6579
20
9024
0
VERTEX
8
0
10
6472
20
9067
0
SEQEND
0
POLYLINE
8
0
62
5
66
1
40
1
41
1
0
VERTEX
8
0
10
6497
20
11365
0
VERTEX
8
0
10
6393
20
11315
0
SEQEND
0
POLYLINE
8
0
62
5
66
1
40
1
41
1
0
VERTEX
8
0
10
6519
20
11320
0
VERTEX
8
0
10
6414
20
11271
0
SEQEND
0
POLYLINE
8
0
62
5
66
1
40
1
41
1
0
VERTEX
8
0
10
6540
20
11274
0
VERTEX
8
0
10
6434
20
11227
0
SEQEND
0
POLYLINE
8
0
62
5
66
1
40
1
41
1
0
VERTEX
8
0
10
6560
20
11228
0
VERTEX
8
0
10
6454
20
11183
0
SEQEND
0
POLYLINE
8
0
62
5
66
1
40
1
41
1
0
VERTEX
8
0
10
6579
20
11181
0
VERTEX
8
0
10
6472
20
11138
0
SEQEND
0
POLYLINE
8
0
62
5
66
1
40
1
41
1
0
VERTEX
8
0
10
6497
20
8840
0
VERTEX
8
0
10
6393
20
8890
0
SEQEND
0
POLYLINE
8
0
62
3
66
1
40
1
41
1
0
VERTEX
8
0
10
6579
20
9387
0
VERTEX
8
0
10
6431
20
9427
0
SEQEND
0
POLYLINE
8
0
62
6
66
1
40
1
41
1
0
VERTEX
8
0
10
6507
20
9156
0
VERTEX
8
0
10
6377
20
9204
0
SEQEND
0
POLYLINE
8
0
62
6
66
1
40
1
41
1
0
VERTEX
8
0
10
6480
20
9649
0
VERTEX
8
0
10
6367
20
9669
0
SEQEND
0
POLYLINE
8
0
62
6
66
1
40
1
41
1
0
VERTEX
8
0
10
6520
20
10102
0
VERTEX
8
0
10
6405
20
10102
0
SEQEND
0
POLYLINE
8
0
62
6
66
1
40
1
41
1
0
VERTEX
8
0
10
6480
20
10556
0
VERTEX
8
0
10
6367
20
10536
0
SEQEND
0
POLYLINE
8
0
62
3
66
1
40
1
41
1
0
VERTEX
8
0
10
6579
20
10818
0
VERTEX
8
0
10
6431
20
10778
0
SEQEND
0
POLYLINE
8
0
62
5
66
1
40
1
41
1
0
VERTEX
8
0
10
6645
20
4557
0
VERTEX
8
0
10
6536
20
4520
0
SEQEND
0
POLYLINE
8
0
62
3
66
1
40
1
41
1
0
VERTEX
8
0
10
6375
20
4512
0
VERTEX
8
0
10
6509
20
4561
0
VERTEX
8
0
10
6530
20
4569
0
VERTEX
8
0
10
6628
20
4605
0
SEQEND
0
POLYLINE
8
0
62
5
66
1
40
1
41
1
0
VERTEX
8
0
10
6661
20
4509
0
VERTEX
8
0
10
6551
20
4474
0
SEQEND
0
POLYLINE
8
0
62
5
66
1
40
1
41
1
0
VERTEX
8
0
10
6676
20
4462
0
VERTEX
8
0
10
6565
20
4428
0
SEQEND
0
POLYLINE
8
0
62
6
66
1
40
1
41
1
0
VERTEX
8
0
10
6530
20
4569
0
VERTEX
8
0
10
6527
20
4567
0
SEQEND
0
POLYLINE
8
0
62
5
66
1
40
1
41
1
0
VERTEX
8
0
10
6527
20
4567
0
VERTEX
8
0
10
6520
20
4565
0
SEQEND
0
POLYLINE
8
0
62
6
66
1
40
1
41
1
0
VERTEX
8
0
10
6520
20
4565
0
VERTEX
8
0
10
6509
20
4561
0
SEQEND
0
POLYLINE
8
0
62
5
66
1
40
1
41
1
0
VERTEX
8
0
10
6754
20
4170
0
VERTEX
8
0
10
6636
20
4147
0
SEQEND
0
POLYLINE
8
0
62
5
66
1
40
1
41
1
0
VERTEX
8
0
10
6716
20
4316
0
VERTEX
8
0
10
6604
20
4288
0
SEQEND
0
POLYLINE
8
0
62
5
66
1
40
1
41
1
0
VERTEX
8
0
10
6728
20
4267
0
VERTEX
8
0
10
6615
20
4241
0
SEQEND
0
POLYLINE
8
0
62
5
66
1
40
1
41
1
0
VERTEX
8
0
10
6739
20
4218
0
VERTEX
8
0
10
6626
20
4194
0
SEQEND
0
POLYLINE
8
0
62
5
66
1
40
1
41
1
0
VERTEX
8
0
10
6690
20
4413
0
VERTEX
8
0
10
6579
20
4382
0
SEQEND
0
POLYLINE
8
0
62
5
66
1
40
1
41
1
0
VERTEX
8
0
10
6703
20
4365
0
VERTEX
8
0
10
6592
20
4335
0
SEQEND
0
POLYLINE
8
0
62
7
66
1
40
1
41
1
0
VERTEX
8
0
10
6770
20
4070
0
VERTEX
8
0
10
6777
20
4020
0
VERTEX
8
0
10
6783
20
3970
0
VERTEX
8
0
10
6788
20
3921
0
VERTEX
8
0
10
6793
20
3871
0
VERTEX
8
0
10
6796
20
3820
0
VERTEX
8
0
10
6799
20
3770
0
VERTEX
8
0
10
6801
20
3720
0
VERTEX
8
0
10
6802
20
3670
0
VERTEX
8
0
10
6802
20
3619
0
VERTEX
8
0
10
6802
20
3569
0
VERTEX
8
0
10
6801
20
3519
0
VERTEX
8
0
10
6799
20
3469
0
VERTEX
8
0
10
6796
20
3419
0
VERTEX
8
0
10
6793
20
3368
0
VERTEX
8
0
10
6788
20
3318
0
VERTEX
8
0
10
6783
20
3268
0
VERTEX
8
0
10
6777
20
3218
0
VERTEX
8
0
10
6770
20
3168
0
VERTEX
8
0
10
6762
20
3118
0
VERTEX
8
0
10
6754
20
3069
0
VERTEX
8
0
10
6684
20
2774
0
VERTEX
8
0
10
6582
20
2491
0
VERTEX
8
0
10
6450
20
2222
0
VERTEX
8
0
10
6285
20
1965
0
VERTEX
8
0
10
6255
20
1924
0
VERTEX
8
0
10
6224
20
1884
0
VERTEX
8
0
10
6193
20
1844
0
VERTEX
8
0
10
6162
20
1806
0
VERTEX
8
0
10
6129
20
1767
0
VERTEX
8
0
10
6096
20
1729
0
VERTEX
8
0
10
6062
20
1692
0
VERTEX
8
0
10
6028
20
1655
0
VERTEX
8
0
10
5994
20
1618
0
VERTEX
8
0
10
5958
20
1583
0
VERTEX
8
0
10
5923
20
1547
0
VERTEX
8
0
10
5886
20
1513
0
VERTEX
8
0
10
5849
20
1479
0
VERTEX
8
0
10
5812
20
1445
0
VERTEX
8
0
10
5774
20
1412
0
VERTEX
8
0
10
5735
20
1379
0
VERTEX
8
0
10
5697
20
1348
0
VERTEX
8
0
10
5657
20
1317
0
VERTEX
8
0
10
5617
20
1286
0
VERTEX
8
0
10
5576
20
1256
0
VERTEX
8
0
10
5320
20
1093
0
VERTEX
8
0
10
5050
20
960
0
VERTEX
8
0
10
4768
20
858
0
VERTEX
8
0
10
4472
20
787
0
VERTEX
8
0
10
4423
20
778
0
VERTEX
8
0
10
4373
20
771
0
VERTEX
8
0
10
4323
20
764
0
VERTEX
8
0
10
4273
20
758
0
VERTEX
8
0
10
4223
20
753
0
VERTEX
8
0
10
4173
20
748
0
VERTEX
8
0
10
4122
20
745
0
VERTEX
8
0
10
4072
20
742
0
VERTEX
8
0
10
4022
20
740
0
VERTEX
8
0
10
3972
20
739
0
VERTEX
8
0
10
3922
20
739
0
VERTEX
8
0
10
3871
20
739
0
VERTEX
8
0
10
3821
20
740
0
VERTEX
8
0
10
3771
20
742
0
VERTEX
8
0
10
3721
20
745
0
VERTEX
8
0
10
3670
20
748
0
VERTEX
8
0
10
3620
20
753
0
VERTEX
8
0
10
3571
20
758
0
VERTEX
8
0
10
3521
20
764
0
VERTEX
8
0
10
3471
20
771
0
VERTEX
8
0
10
3421
20
779
0
VERTEX
8
0
10
3371
20
787
0
VERTEX
8
0
10
3077
20
858
0
VERTEX
8
0
10
2794
20
960
0
VERTEX
8
0
10
2525
20
1093
0
VERTEX
8
0
10
2268
20
1256
0
VERTEX
8
0
10
2227
20
1286
0
VERTEX
8
0
10
2187
20
1317
0
VERTEX
8
0
10
2147
20
1348
0
VERTEX
8
0
10
2108
20
1380
0
VERTEX
8
0
10
2070
20
1412
0
VERTEX
8
0
10
2032
20
1445
0
VERTEX
8
0
10
1994
20
1479
0
VERTEX
8
0
10
1957
20
1513
0
VERTEX
8
0
10
1921
20
1547
0
VERTEX
8
0
10
1885
20
1583
0
VERTEX
8
0
10
1850
20
1618
0
VERTEX
8
0
10
1815
20
1655
0
VERTEX
8
0
10
1781
20
1692
0
VERTEX
8
0
10
1748
20
1729
0
VERTEX
8
0
10
1715
20
1767
0
VERTEX
8
0
10
1682
20
1806
0
VERTEX
8
0
10
1651
20
1844
0
VERTEX
8
0
10
1619
20
1884
0
VERTEX
8
0
10
1589
20
1924
0
VERTEX
8
0
10
1559
20
1965
0
VERTEX
8
0
10
1530
20
2006
0
VERTEX
8
0
10
1384
20
2244
0
VERTEX
8
0
10
1263
20
2492
0
VERTEX
8
0
10
1169
20
2751
0
VERTEX
8
0
10
1100
20
3020
0
VERTEX
8
0
10
1090
20
3069
0
VERTEX
8
0
10
1082
20
3118
0
VERTEX
8
0
10
1074
20
3168
0
VERTEX
8
0
10
1067
20
3218
0
VERTEX
8
0
10
1061
20
3269
0
VERTEX
8
0
10
1056
20
3318
0
VERTEX
8
0
10
1052
20
3368
0
VERTEX
8
0
10
1048
20
3419
0
VERTEX
8
0
10
1046
20
3469
0
VERTEX
8
0
10
1044
20
3519
0
VERTEX
8
0
10
1043
20
3569
0
VERTEX
8
0
10
1042
20
3619
0
VERTEX
8
0
10
1043
20
3670
0
VERTEX
8
0
10
1044
20
3720
0
VERTEX
8
0
10
1046
20
3770
0
VERTEX
8
0
10
1048
20
3820
0
VERTEX
8
0
10
1052
20
3871
0
VERTEX
8
0
10
1056
20
3921
0
VERTEX
8
0
10
1061
20
3970
0
VERTEX
8
0
10
1067
20
4020
0
VERTEX
8
0
10
1074
20
4070
0
VERTEX
8
0
10
1082
20
4120
0
VERTEX
8
0
10
1091
20
4169
0
VERTEX
8
0
10
1100
20
4219
0
VERTEX
8
0
10
1110
20
4268
0
VERTEX
8
0
10
1176
20
4513
0
VERTEX
8
0
10
1263
20
4748
0
VERTEX
8
0
10
1372
20
4974
0
VERTEX
8
0
10
1502
20
5190
0
VERTEX
8
0
10
1531
20
5232
0
VERTEX
8
0
10
1559
20
5273
0
VERTEX
8
0
10
1589
20
5314
0
VERTEX
8
0
10
1620
20
5354
0
VERTEX
8
0
10
1651
20
5394
0
VERTEX
8
0
10
1682
20
5433
0
VERTEX
8
0
10
1715
20
5471
0
VERTEX
8
0
10
1748
20
5509
0
VERTEX
8
0
10
1781
20
5547
0
VERTEX
8
0
10
1815
20
5584
0
VERTEX
8
0
10
1850
20
5620
0
VERTEX
8
0
10
1885
20
5656
0
VERTEX
8
0
10
1921
20
5691
0
VERTEX
8
0
10
1957
20
5726
0
VERTEX
8
0
10
1994
20
5760
0
VERTEX
8
0
10
2032
20
5793
0
VERTEX
8
0
10
2070
20
5826
0
VERTEX
8
0
10
2108
20
5859
0
VERTEX
8
0
10
2147
20
5890
0
VERTEX
8
0
10
2187
20
5922
0
VERTEX
8
0
10
2227
20
5952
0
VERTEX
8
0
10
2268
20
5982
0
VERTEX
8
0
10
2309
20
6011
0
VERTEX
8
0
10
2547
20
6158
0
VERTEX
8
0
10
2794
20
6279
0
VERTEX
8
0
10
3053
20
6374
0
VERTEX
8
0
10
3322
20
6441
0
VERTEX
8
0
10
3372
20
6451
0
VERTEX
8
0
10
3421
20
6459
0
VERTEX
8
0
10
3471
20
6467
0
VERTEX
8
0
10
3521
20
6474
0
VERTEX
8
0
10
3571
20
6480
0
VERTEX
8
0
10
3620
20
6485
0
VERTEX
8
0
10
3670
20
6489
0
VERTEX
8
0
10
3721
20
6493
0
VERTEX
8
0
10
3771
20
6495
0
VERTEX
8
0
10
3821
20
6497
0
VERTEX
8
0
10
3871
20
6498
0
VERTEX
8
0
10
3922
20
6499
0
VERTEX
8
0
10
3972
20
6498
0
VERTEX
8
0
10
4022
20
6497
0
VERTEX
8
0
10
4072
20
6495
0
VERTEX
8
0
10
4122
20
6493
0
VERTEX
8
0
10
4173
20
6489
0
VERTEX
8
0
10
4223
20
6485
0
VERTEX
8
0
10
4272
20
6480
0
VERTEX
8
0
10
4323
20
6474
0
VERTEX
8
0
10
4373
20
6467
0
VERTEX
8
0
10
4423
20
6459
0
VERTEX
8
0
10
4472
20
6451
0
VERTEX
8
0
10
4521
20
6441
0
VERTEX
8
0
10
4792
20
6374
0
VERTEX
8
0
10
5051
20
6280
0
VERTEX
8
0
10
5299
20
6159
0
VERTEX
8
0
10
5535
20
6011
0
VERTEX
8
0
10
5576
20
5982
0
VERTEX
8
0
10
5617
20
5952
0
VERTEX
8
0
10
5657
20
5922
0
VERTEX
8
0
10
5697
20
5890
0
VERTEX
8
0
10
5735
20
5859
0
VERTEX
8
0
10
5774
20
5826
0
SEQEND
0
POLYLINE
8
0
62
7
66
1
40
1
41
1
0
VERTEX
8
0
10
5774
20
5826
0
VERTEX
8
0
10
5812
20
5793
0
VERTEX
8
0
10
5849
20
5760
0
VERTEX
8
0
10
5886
20
5726
0
VERTEX
8
0
10
5923
20
5691
0
VERTEX
8
0
10
5958
20
5656
0
VERTEX
8
0
10
5994
20
5620
0
VERTEX
8
0
10
6028
20
5584
0
VERTEX
8
0
10
6062
20
5547
0
VERTEX
8
0
10
6096
20
5509
0
VERTEX
8
0
10
6129
20
5471
0
VERTEX
8
0
10
6161
20
5433
0
VERTEX
8
0
10
6193
20
5394
0
VERTEX
8
0
10
6224
20
5354
0
VERTEX
8
0
10
6255
20
5314
0
VERTEX
8
0
10
6285
20
5273
0
VERTEX
8
0
10
6313
20
5233
0
VERTEX
8
0
10
6467
20
4986
0
VERTEX
8
0
10
6591
20
4726
0
VERTEX
8
0
10
6687
20
4454
0
VERTEX
8
0
10
6754
20
4170
0
VERTEX
8
0
10
6762
20
4120
0
VERTEX
8
0
10
6770
20
4070
0
SEQEND
0
POLYLINE
8
0
62
5
66
1
40
1
41
1
0
VERTEX
8
0
10
6655
20
4102
0
VERTEX
8
0
10
6644
20
4100
0
SEQEND
0
POLYLINE
8
0
62
3
66
1
40
1
41
1
0
VERTEX
8
0
10
6644
20
4100
0
VERTEX
8
0
10
6493
20
4073
0
SEQEND
0
POLYLINE
8
0
62
3
66
1
40
1
41
1
0
VERTEX
8
0
10
6676
20
3860
0
VERTEX
8
0
10
6523
20
3847
0
SEQEND
0
POLYLINE
8
0
62
5
66
1
40
1
41
1
0
VERTEX
8
0
10
6690
20
3861
0
VERTEX
8
0
10
6676
20
3860
0
SEQEND
0
POLYLINE
8
0
62
5
66
1
40
1
41
1
0
VERTEX
8
0
10
6777
20
4020
0
VERTEX
8
0
10
6659
20
4004
0
SEQEND
0
POLYLINE
8
0
62
5
66
1
40
1
41
1
0
VERTEX
8
0
10
6783
20
3970
0
VERTEX
8
0
10
6666
20
3956
0
SEQEND
0
POLYLINE
8
0
62
5
66
1
40
1
41
1
0
VERTEX
8
0
10
6788
20
3921
0
VERTEX
8
0
10
6671
20
3909
0
SEQEND
0
POLYLINE
8
0
62
5
66
1
40
1
41
1
0
VERTEX
8
0
10
6796
20
3820
0
VERTEX
8
0
10
6680
20
3812
0
SEQEND
0
POLYLINE
8
0
62
5
66
1
40
1
41
1
0
VERTEX
8
0
10
6799
20
3770
0
VERTEX
8
0
10
6683
20
3764
0
SEQEND
0
POLYLINE
8
0
62
3
66
1
40
1
41
1
0
VERTEX
8
0
10
6793
20
3871
0
VERTEX
8
0
10
6690
20
3861
0
SEQEND
0
POLYLINE
8
0
62
5
66
1
40
1
41
1
0
VERTEX
8
0
10
6770
20
4070
0
VERTEX
8
0
10
6652
20
4052
0
SEQEND
0
POLYLINE
8
0
62
3
66
1
40
1
41
1
0
VERTEX
8
0
10
6762
20
4120
0
VERTEX
8
0
10
6655
20
4102
0
SEQEND
0
POLYLINE
8
0
62
5
66
1
40
1
41
1
0
VERTEX
8
0
10
6802
20
3670
0
VERTEX
8
0
10
6686
20
3668
0
SEQEND
0
POLYLINE
8
0
62
5
66
1
40
1
41
1
0
VERTEX
8
0
10
6801
20
3720
0
VERTEX
8
0
10
6685
20
3716
0
SEQEND
0
POLYLINE
8
0
62
5
66
1
40
1
41
1
0
VERTEX
8
0
10
6610
20
4652
0
VERTEX
8
0
10
6503
20
4610
0
SEQEND
0
POLYLINE
8
0
62
3
66
1
40
1
41
1
0
VERTEX
8
0
10
6686
20
3619
0
VERTEX
8
0
10
6533
20
3619
0
SEQEND
0
POLYLINE
8
0
62
5
66
1
40
1
41
1
0
VERTEX
8
0
10
6690
20
3377
0
VERTEX
8
0
10
6676
20
3378
0
SEQEND
0
POLYLINE
8
0
62
3
66
1
40
1
41
1
0
VERTEX
8
0
10
6676
20
3378
0
VERTEX
8
0
10
6523
20
3392
0
SEQEND
0
POLYLINE
8
0
62
5
66
1
40
1
41
1
0
VERTEX
8
0
10
6802
20
3569
0
VERTEX
8
0
10
6686
20
3571
0
SEQEND
0
POLYLINE
8
0
62
5
66
1
40
1
41
1
0
VERTEX
8
0
10
6802
20
3619
0
VERTEX
8
0
10
6686
20
3619
0
SEQEND
0
POLYLINE
8
0
62
5
66
1
40
1
41
1
0
VERTEX
8
0
10
6796
20
3419
0
VERTEX
8
0
10
6680
20
3427
0
SEQEND
0
POLYLINE
8
0
62
3
66
1
40
1
41
1
0
VERTEX
8
0
10
6793
20
3368
0
VERTEX
8
0
10
6690
20
3377
0
SEQEND
0
POLYLINE
8
0
62
5
66
1
40
1
41
1
0
VERTEX
8
0
10
6788
20
3318
0
VERTEX
8
0
10
6671
20
3330
0
SEQEND
0
POLYLINE
8
0
62
5
66
1
40
1
41
1
0
VERTEX
8
0
10
6783
20
3268
0
VERTEX
8
0
10
6666
20
3283
0
SEQEND
0
POLYLINE
8
0
62
5
66
1
40
1
41
1
0
VERTEX
8
0
10
6777
20
3218
0
VERTEX
8
0
10
6659
20
3235
0
SEQEND
0
POLYLINE
8
0
62
5
66
1
40
1
41
1
0
VERTEX
8
0
10
6770
20
3168
0
VERTEX
8
0
10
6652
20
3187
0
SEQEND
0
POLYLINE
8
0
62
5
66
1
40
1
41
1
0
VERTEX
8
0
10
6799
20
3469
0
VERTEX
8
0
10
6683
20
3475
0
SEQEND
0
POLYLINE
8
0
62
5
66
1
40
1
41
1
0
VERTEX
8
0
10
6801
20
3519
0
VERTEX
8
0
10
6685
20
3523
0
SEQEND
0
POLYLINE
8
0
62
5
66
1
40
1
41
1
0
VERTEX
8
0
10
6655
20
3137
0
VERTEX
8
0
10
6644
20
3139
0
SEQEND
0
POLYLINE
8
0
62
5
66
1
40
1
41
1
0
VERTEX
8
0
10
6690
20
2826
0
VERTEX
8
0
10
6579
20
2857
0
SEQEND
0
POLYLINE
8
0
62
5
66
1
40
1
41
1
0
VERTEX
8
0
10
6533
20
2669
0
VERTEX
8
0
10
6520
20
2673
0
SEQEND
0
POLYLINE
8
0
62
5
66
1
40
1
41
1
0
VERTEX
8
0
10
6676
20
2777
0
VERTEX
8
0
10
6565
20
2811
0
SEQEND
0
POLYLINE
8
0
62
5
66
1
40
1
41
1
0
VERTEX
8
0
10
6645
20
2682
0
VERTEX
8
0
10
6536
20
2719
0
SEQEND
0
POLYLINE
8
0
62
5
66
1
40
1
41
1
0
VERTEX
8
0
10
6661
20
2730
0
VERTEX
8
0
10
6551
20
2765
0
SEQEND
0
POLYLINE
8
0
62
5
66
1
40
1
41
1
0
VERTEX
8
0
10
6703
20
2874
0
VERTEX
8
0
10
6592
20
2904
0
SEQEND
0
POLYLINE
8
0
62
5
66
1
40
1
41
1
0
VERTEX
8
0
10
6728
20
2972
0
VERTEX
8
0
10
6615
20
2998
0
SEQEND
0
POLYLINE
8
0
62
5
66
1
40
1
41
1
0
VERTEX
8
0
10
6716
20
2923
0
VERTEX
8
0
10
6604
20
2951
0
SEQEND
0
POLYLINE
8
0
62
5
66
1
40
1
41
1
0
VERTEX
8
0
10
6739
20
3021
0
VERTEX
8
0
10
6626
20
3045
0
SEQEND
0
POLYLINE
8
0
62
5
66
1
40
1
41
1
0
VERTEX
8
0
10
6754
20
3069
0
VERTEX
8
0
10
6636
20
3092
0
SEQEND
0
POLYLINE
8
0
62
3
66
1
40
1
41
1
0
VERTEX
8
0
10
6762
20
3118
0
VERTEX
8
0
10
6655
20
3137
0
SEQEND
0
POLYLINE
8
0
62
3
66
1
40
1
41
1
0
VERTEX
8
0
10
6644
20
3139
0
VERTEX
8
0
10
6493
20
3166
0
SEQEND
0
POLYLINE
8
0
62
5
66
1
40
1
41
1
0
VERTEX
8
0
10
6610
20
2587
0
VERTEX
8
0
10
6503
20
2629
0
SEQEND
0
POLYLINE
8
0
62
6
66
1
40
1
41
1
0
VERTEX
8
0
10
6628
20
2634
0
VERTEX
8
0
10
6533
20
2669
0
SEQEND
0
POLYLINE
8
0
62
5
66
1
40
1
41
1
0
VERTEX
8
0
10
5093
20
6251
0
VERTEX
8
0
10
5046
20
6145
0
SEQEND
0
POLYLINE
8
0
62
5
66
1
40
1
41
1
0
VERTEX
8
0
10
5139
20
6230
0
VERTEX
8
0
10
5090
20
6125
0
SEQEND
0
POLYLINE
8
0
62
5
66
1
40
1
41
1
0
VERTEX
8
0
10
5047
20
6271
0
VERTEX
8
0
10
5002
20
6165
0
SEQEND
0
POLYLINE
8
0
62
5
66
1
40
1
41
1
0
VERTEX
8
0
10
5000
20
6290
0
VERTEX
8
0
10
4957
20
6183
0
SEQEND
0
POLYLINE
8
0
62
5
66
1
40
1
41
1
0
VERTEX
8
0
10
4954
20
6308
0
VERTEX
8
0
10
4912
20
6201
0
SEQEND
0
POLYLINE
8
0
62
3
66
1
40
1
41
1
0
VERTEX
8
0
10
5576
20
5982
0
VERTEX
8
0
10
5514
20
5894
0
SEQEND
0
POLYLINE
8
0
62
5
66
1
40
1
41
1
0
VERTEX
8
0
10
5514
20
5894
0
VERTEX
8
0
10
5507
20
5884
0
SEQEND
0
POLYLINE
8
0
62
5
66
1
40
1
41
1
0
VERTEX
8
0
10
5308
20
6020
0
VERTEX
8
0
10
5304
20
6014
0
SEQEND
0
POLYLINE
8
0
62
6
66
1
40
1
41
1
0
VERTEX
8
0
10
5301
20
6008
0
VERTEX
8
0
10
5308
20
6020
0
SEQEND
0
POLYLINE
8
0
62
3
66
1
40
1
41
1
0
VERTEX
8
0
10
5304
20
6014
0
VERTEX
8
0
10
5301
20
6008
0
SEQEND
0
POLYLINE
8
0
62
6
66
1
40
1
41
1
0
VERTEX
8
0
10
5301
20
6008
0
VERTEX
8
0
10
5298
20
6003
0
VERTEX
8
0
10
5297
20
6001
0
VERTEX
8
0
10
5170
20
5781
0
SEQEND
0
POLYLINE
8
0
62
6
66
1
40
1
41
1
0
VERTEX
8
0
10
5362
20
6114
0
VERTEX
8
0
10
5309
20
6021
0
VERTEX
8
0
10
5308
20
6020
0
SEQEND
0
POLYLINE
8
0
62
5
66
1
40
1
41
1
0
VERTEX
8
0
10
5448
20
6062
0
VERTEX
8
0
10
5387
20
5964
0
SEQEND
0
POLYLINE
8
0
62
5
66
1
40
1
41
1
0
VERTEX
8
0
10
5405
20
6088
0
VERTEX
8
0
10
5345
20
5989
0
SEQEND
0
POLYLINE
8
0
62
5
66
1
40
1
41
1
0
VERTEX
8
0
10
5535
20
6011
0
VERTEX
8
0
10
5468
20
5912
0
SEQEND
0
POLYLINE
8
0
62
5
66
1
40
1
41
1
0
VERTEX
8
0
10
5490
20
6035
0
VERTEX
8
0
10
5427
20
5938
0
SEQEND
0
POLYLINE
8
0
62
5
66
1
40
1
41
1
0
VERTEX
8
0
10
5617
20
5952
0
VERTEX
8
0
10
5547
20
5856
0
SEQEND
0
POLYLINE
8
0
62
5
66
1
40
1
41
1
0
VERTEX
8
0
10
5657
20
5922
0
VERTEX
8
0
10
5585
20
5828
0
SEQEND
0
POLYLINE
8
0
62
3
66
1
40
1
41
1
0
VERTEX
8
0
10
5507
20
5884
0
VERTEX
8
0
10
5419
20
5758
0
SEQEND
0
POLYLINE
8
0
62
5
66
1
40
1
41
1
0
VERTEX
8
0
10
5274
20
6162
0
VERTEX
8
0
10
5219
20
6061
0
SEQEND
0
POLYLINE
8
0
62
5
66
1
40
1
41
1
0
VERTEX
8
0
10
5229
20
6186
0
VERTEX
8
0
10
5177
20
6083
0
SEQEND
0
POLYLINE
8
0
62
5
66
1
40
1
41
1
0
VERTEX
8
0
10
5184
20
6208
0
VERTEX
8
0
10
5134
20
6104
0
SEQEND
0
POLYLINE
8
0
62
5
66
1
40
1
41
1
0
VERTEX
8
0
10
5318
20
6138
0
VERTEX
8
0
10
5262
20
6038
0
SEQEND
0
POLYLINE
8
0
62
3
66
1
40
1
41
1
0
VERTEX
8
0
10
5090
20
6125
0
VERTEX
8
0
10
5025
20
5986
0
SEQEND
0
POLYLINE
8
0
62
3
66
1
40
1
41
1
0
VERTEX
8
0
10
5774
20
5826
0
VERTEX
8
0
10
5708
20
5748
0
SEQEND
0
POLYLINE
8
0
62
5
66
1
40
1
41
1
0
VERTEX
8
0
10
5708
20
5748
0
VERTEX
8
0
10
5699
20
5737
0
SEQEND
0
POLYLINE
8
0
62
5
66
1
40
1
41
1
0
VERTEX
8
0
10
5849
20
5760
0
VERTEX
8
0
10
5772
20
5674
0
SEQEND
0
POLYLINE
8
0
62
5
66
1
40
1
41
1
0
VERTEX
8
0
10
5812
20
5793
0
VERTEX
8
0
10
5735
20
5706
0
SEQEND
0
POLYLINE
8
0
62
5
66
1
40
1
41
1
0
VERTEX
8
0
10
5886
20
5726
0
VERTEX
8
0
10
5807
20
5642
0
SEQEND
0
POLYLINE
8
0
62
5
66
1
40
1
41
1
0
VERTEX
8
0
10
5697
20
5890
0
VERTEX
8
0
10
5624
20
5798
0
SEQEND
0
POLYLINE
8
0
62
5
66
1
40
1
41
1
0
VERTEX
8
0
10
5735
20
5859
0
VERTEX
8
0
10
5661
20
5768
0
SEQEND
0
POLYLINE
8
0
62
5
66
1
40
1
41
1
0
VERTEX
8
0
10
4022
20
6497
0
VERTEX
8
0
10
4018
20
6383
0
SEQEND
0
POLYLINE
8
0
62
5
66
1
40
1
41
1
0
VERTEX
8
0
10
3871
20
6498
0
VERTEX
8
0
10
3873
20
6384
0
SEQEND
0
POLYLINE
8
0
62
5
66
1
40
1
41
1
0
VERTEX
8
0
10
3972
20
6498
0
VERTEX
8
0
10
3970
20
6384
0
SEQEND
0
POLYLINE
8
0
62
5
66
1
40
1
41
1
0
VERTEX
8
0
10
3922
20
6499
0
VERTEX
8
0
10
3922
20
6384
0
SEQEND
0
POLYLINE
8
0
62
5
66
1
40
1
41
1
0
VERTEX
8
0
10
3821
20
6497
0
VERTEX
8
0
10
3825
20
6383
0
SEQEND
0
POLYLINE
8
0
62
3
66
1
40
1
41
1
0
VERTEX
8
0
10
3670
20
6489
0
VERTEX
8
0
10
3680
20
6388
0
SEQEND
0
POLYLINE
8
0
62
5
66
1
40
1
41
1
0
VERTEX
8
0
10
3680
20
6388
0
VERTEX
8
0
10
3681
20
6374
0
SEQEND
0
POLYLINE
8
0
62
5
66
1
40
1
41
1
0
VERTEX
8
0
10
3721
20
6493
0
VERTEX
8
0
10
3729
20
6378
0
SEQEND
0
POLYLINE
8
0
62
5
66
1
40
1
41
1
0
VERTEX
8
0
10
3771
20
6495
0
VERTEX
8
0
10
3777
20
6381
0
SEQEND
0
POLYLINE
8
0
62
3
66
1
40
1
41
1
0
VERTEX
8
0
10
3681
20
6374
0
VERTEX
8
0
10
3694
20
6221
0
SEQEND
0
POLYLINE
8
0
62
3
66
1
40
1
41
1
0
VERTEX
8
0
10
3922
20
6384
0
VERTEX
8
0
10
3922
20
6231
0
SEQEND
0
POLYLINE
8
0
62
5
66
1
40
1
41
1
0
VERTEX
8
0
10
3620
20
6485
0
VERTEX
8
0
10
3632
20
6369
0
SEQEND
0
POLYLINE
8
0
62
5
66
1
40
1
41
1
0
VERTEX
8
0
10
3439
20
6352
0
VERTEX
8
0
10
3441
20
6342
0
SEQEND
0
POLYLINE
8
0
62
5
66
1
40
1
41
1
0
VERTEX
8
0
10
3571
20
6480
0
VERTEX
8
0
10
3585
20
6364
0
SEQEND
0
POLYLINE
8
0
62
5
66
1
40
1
41
1
0
VERTEX
8
0
10
3521
20
6474
0
VERTEX
8
0
10
3537
20
6357
0
SEQEND
0
POLYLINE
8
0
62
5
66
1
40
1
41
1
0
VERTEX
8
0
10
3274
20
6426
0
VERTEX
8
0
10
3300
20
6313
0
SEQEND
0
POLYLINE
8
0
62
5
66
1
40
1
41
1
0
VERTEX
8
0
10
3322
20
6441
0
VERTEX
8
0
10
3347
20
6324
0
SEQEND
0
POLYLINE
8
0
62
3
66
1
40
1
41
1
0
VERTEX
8
0
10
3421
20
6459
0
VERTEX
8
0
10
3439
20
6352
0
SEQEND
0
POLYLINE
8
0
62
5
66
1
40
1
41
1
0
VERTEX
8
0
10
3471
20
6467
0
VERTEX
8
0
10
3489
20
6350
0
SEQEND
0
POLYLINE
8
0
62
5
66
1
40
1
41
1
0
VERTEX
8
0
10
3372
20
6451
0
VERTEX
8
0
10
3394
20
6334
0
SEQEND
0
POLYLINE
8
0
62
3
66
1
40
1
41
1
0
VERTEX
8
0
10
3441
20
6342
0
VERTEX
8
0
10
3468
20
6191
0
SEQEND
0
POLYLINE
8
0
62
6
66
1
40
1
41
1
0
VERTEX
8
0
10
3468
20
6191
0
VERTEX
8
0
10
3488
20
6078
0
SEQEND
0
POLYLINE
8
0
62
6
66
1
40
1
41
1
0
VERTEX
8
0
10
3922
20
6231
0
VERTEX
8
0
10
3922
20
6115
0
SEQEND
0
POLYLINE
8
0
62
3
66
1
40
1
41
1
0
VERTEX
8
0
10
4637
20
6290
0
VERTEX
8
0
10
4597
20
6142
0
SEQEND
0
POLYLINE
8
0
62
5
66
1
40
1
41
1
0
VERTEX
8
0
10
4811
20
6359
0
VERTEX
8
0
10
4776
20
6249
0
SEQEND
0
POLYLINE
8
0
62
5
66
1
40
1
41
1
0
VERTEX
8
0
10
4859
20
6343
0
VERTEX
8
0
10
4822
20
6234
0
SEQEND
0
POLYLINE
8
0
62
5
66
1
40
1
41
1
0
VERTEX
8
0
10
4872
20
6231
0
VERTEX
8
0
10
4868
20
6218
0
SEQEND
0
POLYLINE
8
0
62
5
66
1
40
1
41
1
0
VERTEX
8
0
10
4618
20
6414
0
VERTEX
8
0
10
4590
20
6302
0
SEQEND
0
POLYLINE
8
0
62
5
66
1
40
1
41
1
0
VERTEX
8
0
10
4569
20
6426
0
VERTEX
8
0
10
4543
20
6313
0
SEQEND
0
POLYLINE
8
0
62
5
66
1
40
1
41
1
0
VERTEX
8
0
10
4715
20
6388
0
VERTEX
8
0
10
4684
20
6277
0
SEQEND
0
POLYLINE
8
0
62
5
66
1
40
1
41
1
0
VERTEX
8
0
10
4764
20
6374
0
VERTEX
8
0
10
4730
20
6263
0
SEQEND
0
POLYLINE
8
0
62
5
66
1
40
1
41
1
0
VERTEX
8
0
10
4667
20
6401
0
VERTEX
8
0
10
4637
20
6290
0
SEQEND
0
POLYLINE
8
0
62
5
66
1
40
1
41
1
0
VERTEX
8
0
10
4521
20
6441
0
VERTEX
8
0
10
4496
20
6324
0
SEQEND
0
POLYLINE
8
0
62
5
66
1
40
1
41
1
0
VERTEX
8
0
10
4164
20
6388
0
VERTEX
8
0
10
4163
20
6374
0
SEQEND
0
POLYLINE
8
0
62
3
66
1
40
1
41
1
0
VERTEX
8
0
10
4173
20
6489
0
VERTEX
8
0
10
4164
20
6388
0
SEQEND
0
POLYLINE
8
0
62
5
66
1
40
1
41
1
0
VERTEX
8
0
10
4122
20
6493
0
VERTEX
8
0
10
4114
20
6378
0
SEQEND
0
POLYLINE
8
0
62
5
66
1
40
1
41
1
0
VERTEX
8
0
10
4072
20
6495
0
VERTEX
8
0
10
4066
20
6381
0
SEQEND
0
POLYLINE
8
0
62
5
66
1
40
1
41
1
0
VERTEX
8
0
10
4223
20
6485
0
VERTEX
8
0
10
4211
20
6369
0
SEQEND
0
POLYLINE
8
0
62
5
66
1
40
1
41
1
0
VERTEX
8
0
10
4404
20
6352
0
VERTEX
8
0
10
4402
20
6342
0
SEQEND
0
POLYLINE
8
0
62
3
66
1
40
1
41
1
0
VERTEX
8
0
10
4402
20
6342
0
VERTEX
8
0
10
4375
20
6191
0
SEQEND
0
POLYLINE
8
0
62
3
66
1
40
1
41
1
0
VERTEX
8
0
10
4423
20
6459
0
VERTEX
8
0
10
4404
20
6352
0
SEQEND
0
POLYLINE
8
0
62
5
66
1
40
1
41
1
0
VERTEX
8
0
10
4373
20
6467
0
VERTEX
8
0
10
4354
20
6350
0
SEQEND
0
POLYLINE
8
0
62
5
66
1
40
1
41
1
0
VERTEX
8
0
10
4323
20
6474
0
VERTEX
8
0
10
4306
20
6357
0
SEQEND
0
POLYLINE
8
0
62
5
66
1
40
1
41
1
0
VERTEX
8
0
10
4272
20
6480
0
VERTEX
8
0
10
4258
20
6364
0
SEQEND
0
POLYLINE
8
0
62
3
66
1
40
1
41
1
0
VERTEX
8
0
10
4163
20
6374
0
VERTEX
8
0
10
4149
20
6221
0
SEQEND
0
POLYLINE
8
0
62
6
66
1
40
1
41
1
0
VERTEX
8
0
10
4815
20
6073
0
VERTEX
8
0
10
4775
20
5965
0
SEQEND
0
POLYLINE
8
0
62
3
66
1
40
1
41
1
0
VERTEX
8
0
10
4820
20
6087
0
VERTEX
8
0
10
4815
20
6073
0
SEQEND
0
POLYLINE
8
0
62
5
66
1
40
1
41
1
0
VERTEX
8
0
10
4472
20
6451
0
VERTEX
8
0
10
4449
20
6334
0
SEQEND
0
POLYLINE
8
0
62
6
66
1
40
1
41
1
0
VERTEX
8
0
10
4375
20
6191
0
VERTEX
8
0
10
4355
20
6078
0
SEQEND
0
POLYLINE
8
0
62
6
66
1
40
1
41
1
0
VERTEX
8
0
10
4868
20
6218
0
VERTEX
8
0
10
4820
20
6087
0
SEQEND
0
POLYLINE
8
0
62
5
66
1
40
1
41
1
0
VERTEX
8
0
10
6255
20
5314
0
VERTEX
8
0
10
6158
20
5245
0
SEQEND
0
POLYLINE
8
0
62
5
66
1
40
1
41
1
0
VERTEX
8
0
10
6224
20
5354
0
VERTEX
8
0
10
6130
20
5283
0
SEQEND
0
POLYLINE
8
0
62
3
66
1
40
1
41
1
0
VERTEX
8
0
10
6285
20
5273
0
VERTEX
8
0
10
6197
20
5212
0
SEQEND
0
POLYLINE
8
0
62
5
66
1
40
1
41
1
0
VERTEX
8
0
10
6197
20
5212
0
VERTEX
8
0
10
6186
20
5205
0
SEQEND
0
POLYLINE
8
0
62
5
66
1
40
1
41
1
0
VERTEX
8
0
10
6313
20
5233
0
VERTEX
8
0
10
6214
20
5166
0
SEQEND
0
POLYLINE
8
0
62
5
66
1
40
1
41
1
0
VERTEX
8
0
10
6193
20
5394
0
VERTEX
8
0
10
6100
20
5322
0
SEQEND
0
POLYLINE
8
0
62
5
66
1
40
1
41
1
0
VERTEX
8
0
10
6028
20
5584
0
VERTEX
8
0
10
5944
20
5505
0
SEQEND
0
POLYLINE
8
0
62
5
66
1
40
1
41
1
0
VERTEX
8
0
10
6062
20
5547
0
VERTEX
8
0
10
5976
20
5470
0
SEQEND
0
POLYLINE
8
0
62
5
66
1
40
1
41
1
0
VERTEX
8
0
10
6051
20
5406
0
VERTEX
8
0
10
6040
20
5396
0
SEQEND
0
POLYLINE
8
0
62
5
66
1
40
1
41
1
0
VERTEX
8
0
10
5994
20
5620
0
VERTEX
8
0
10
5910
20
5540
0
SEQEND
0
POLYLINE
8
0
62
3
66
1
40
1
41
1
0
VERTEX
8
0
10
5877
20
5575
0
VERTEX
8
0
10
5768
20
5466
0
SEQEND
0
POLYLINE
8
0
62
3
66
1
40
1
41
1
0
VERTEX
8
0
10
6040
20
5396
0
VERTEX
8
0
10
5922
20
5298
0
SEQEND
0
POLYLINE
8
0
62
6
66
1
40
1
41
1
0
VERTEX
8
0
10
5922
20
5298
0
VERTEX
8
0
10
5834
20
5224
0
SEQEND
0
POLYLINE
8
0
62
5
66
1
40
1
41
1
0
VERTEX
8
0
10
6390
20
5103
0
VERTEX
8
0
10
6291
20
5043
0
SEQEND
0
POLYLINE
8
0
62
5
66
1
40
1
41
1
0
VERTEX
8
0
10
6440
20
5016
0
VERTEX
8
0
10
6340
20
4960
0
SEQEND
0
POLYLINE
8
0
62
5
66
1
40
1
41
1
0
VERTEX
8
0
10
6464
20
4972
0
VERTEX
8
0
10
6363
20
4917
0
SEQEND
0
POLYLINE
8
0
62
6
66
1
40
1
41
1
0
VERTEX
8
0
10
6416
20
5059
0
VERTEX
8
0
10
6329
20
5009
0
VERTEX
8
0
10
6327
20
5008
0
SEQEND
0
POLYLINE
8
0
62
5
66
1
40
1
41
1
0
VERTEX
8
0
10
6327
20
5008
0
VERTEX
8
0
10
6316
20
5002
0
SEQEND
0
POLYLINE
8
0
62
3
66
1
40
1
41
1
0
VERTEX
8
0
10
6193
20
4930
0
VERTEX
8
0
10
6183
20
4925
0
SEQEND
0
POLYLINE
8
0
62
3
66
1
40
1
41
1
0
VERTEX
8
0
10
6427
20
4788
0
VERTEX
8
0
10
6288
20
4723
0
SEQEND
0
POLYLINE
8
0
62
6
66
1
40
1
41
1
0
VERTEX
8
0
10
6316
20
5002
0
VERTEX
8
0
10
6193
20
4930
0
SEQEND
0
POLYLINE
8
0
62
5
66
1
40
1
41
1
0
VERTEX
8
0
10
6488
20
4927
0
VERTEX
8
0
10
6385
20
4875
0
SEQEND
0
POLYLINE
8
0
62
5
66
1
40
1
41
1
0
VERTEX
8
0
10
6161
20
5433
0
VERTEX
8
0
10
6070
20
5359
0
SEQEND
0
POLYLINE
8
0
62
3
66
1
40
1
41
1
0
VERTEX
8
0
10
6129
20
5471
0
VERTEX
8
0
10
6051
20
5406
0
SEQEND
0
POLYLINE
8
0
62
5
66
1
40
1
41
1
0
VERTEX
8
0
10
6364
20
5146
0
VERTEX
8
0
10
6266
20
5085
0
SEQEND
0
POLYLINE
8
0
62
5
66
1
40
1
41
1
0
VERTEX
8
0
10
6337
20
5188
0
VERTEX
8
0
10
6240
20
5125
0
SEQEND
0
POLYLINE
8
0
62
5
66
1
40
1
41
1
0
VERTEX
8
0
10
6096
20
5509
0
VERTEX
8
0
10
6008
20
5433
0
SEQEND
0
POLYLINE
8
0
62
6
66
1
40
1
41
1
0
VERTEX
8
0
10
6183
20
4925
0
VERTEX
8
0
10
6083
20
4867
0
SEQEND
0
POLYLINE
8
0
62
3
66
1
40
1
41
1
0
VERTEX
8
0
10
6186
20
5205
0
VERTEX
8
0
10
6060
20
5117
0
SEQEND
0
POLYLINE
8
0
62
6
66
1
40
1
41
1
0
VERTEX
8
0
10
5600
20
5620
0
VERTEX
8
0
10
5526
20
5532
0
SEQEND
0
POLYLINE
8
0
62
6
66
1
40
1
41
1
0
VERTEX
8
0
10
6375
20
4512
0
VERTEX
8
0
10
6267
20
4473
0
SEQEND
0
POLYLINE
8
0
62
6
66
1
40
1
41
1
0
VERTEX
8
0
10
6027
20
3811
0
VERTEX
8
0
10
6034
20
3619
0
VERTEX
8
0
10
6025
20
3405
0
VERTEX
8
0
10
5996
20
3199
0
VERTEX
8
0
10
5948
20
3001
0
VERTEX
8
0
10
5880
20
2809
0
VERTEX
8
0
10
5794
20
2627
0
VERTEX
8
0
10
5687
20
2452
0
VERTEX
8
0
10
5561
20
2286
0
VERTEX
8
0
10
5415
20
2126
0
VERTEX
8
0
10
5257
20
1982
0
VERTEX
8
0
10
5091
20
1856
0
VERTEX
8
0
10
4917
20
1750
0
VERTEX
8
0
10
4733
20
1662
0
VERTEX
8
0
10
4543
20
1595
0
VERTEX
8
0
10
4344
20
1546
0
VERTEX
8
0
10
4138
20
1517
0
VERTEX
8
0
10
3922
20
1507
0
VERTEX
8
0
10
3708
20
1517
0
VERTEX
8
0
10
3502
20
1546
0
VERTEX
8
0
10
3304
20
1595
0
VERTEX
8
0
10
3112
20
1662
0
VERTEX
8
0
10
2930
20
1750
0
VERTEX
8
0
10
2754
20
1856
0
VERTEX
8
0
10
2588
20
1982
0
VERTEX
8
0
10
2428
20
2126
0
VERTEX
8
0
10
2284
20
2286
0
VERTEX
8
0
10
2158
20
2452
0
VERTEX
8
0
10
2052
20
2627
0
VERTEX
8
0
10
1965
20
2809
0
VERTEX
8
0
10
1898
20
3001
0
VERTEX
8
0
10
1849
20
3199
0
VERTEX
8
0
10
1820
20
3405
0
VERTEX
8
0
10
1810
20
3619
0
VERTEX
8
0
10
1818
20
3811
0
VERTEX
8
0
10
1842
20
3996
0
VERTEX
8
0
10
1880
20
4175
0
VERTEX
8
0
10
1934
20
4348
0
VERTEX
8
0
10
2002
20
4513
0
VERTEX
8
0
10
2086
20
4673
0
VERTEX
8
0
10
2185
20
4826
0
VERTEX
8
0
10
2299
20
4973
0
VERTEX
8
0
10
2428
20
5113
0
VERTEX
8
0
10
2588
20
5259
0
VERTEX
8
0
10
2754
20
5384
0
VERTEX
8
0
10
2930
20
5491
0
VERTEX
8
0
10
3112
20
5577
0
VERTEX
8
0
10
3304
20
5645
0
VERTEX
8
0
10
3502
20
5693
0
VERTEX
8
0
10
3708
20
5722
0
VERTEX
8
0
10
3922
20
5731
0
VERTEX
8
0
10
4138
20
5722
0
VERTEX
8
0
10
4344
20
5693
0
VERTEX
8
0
10
4543
20
5645
0
VERTEX
8
0
10
4733
20
5577
0
VERTEX
8
0
10
4917
20
5491
0
VERTEX
8
0
10
5091
20
5384
0
VERTEX
8
0
10
5257
20
5259
0
VERTEX
8
0
10
5415
20
5113
0
VERTEX
8
0
10
5546
20
4973
0
VERTEX
8
0
10
5660
20
4826
0
VERTEX
8
0
10
5760
20
4673
0
VERTEX
8
0
10
5843
20
4513
0
VERTEX
8
0
10
5913
20
4348
0
VERTEX
8
0
10
5966
20
4175
0
VERTEX
8
0
10
6005
20
3996
0
VERTEX
8
0
10
6027
20
3811
0
SEQEND
0
POLYLINE
8
0
62
6
66
1
40
1
41
1
0
VERTEX
8
0
10
4907
20
6326
0
VERTEX
8
0
10
4872
20
6231
0
SEQEND
0
POLYLINE
8
0
62
5
66
1
40
1
41
1
0
VERTEX
8
0
10
5958
20
5656
0
VERTEX
8
0
10
5877
20
5575
0
SEQEND
0
POLYLINE
8
0
62
5
66
1
40
1
41
1
0
VERTEX
8
0
10
5923
20
5691
0
VERTEX
8
0
10
5842
20
5608
0
SEQEND
0
POLYLINE
8
0
62
3
66
1
40
1
41
1
0
VERTEX
8
0
10
5699
20
5737
0
VERTEX
8
0
10
5600
20
5620
0
SEQEND
0
POLYLINE
8
0
62
5
66
1
40
1
41
1
0
VERTEX
8
0
10
1957
20
5726
0
VERTEX
8
0
10
2036
20
5642
0
SEQEND
0
POLYLINE
8
0
62
3
66
1
40
1
41
1
0
VERTEX
8
0
10
2268
20
5982
0
VERTEX
8
0
10
2329
20
5894
0
SEQEND
0
POLYLINE
8
0
62
5
66
1
40
1
41
1
0
VERTEX
8
0
10
2353
20
6035
0
VERTEX
8
0
10
2416
20
5938
0
SEQEND
0
POLYLINE
8
0
62
5
66
1
40
1
41
1
0
VERTEX
8
0
10
2329
20
5894
0
VERTEX
8
0
10
2336
20
5884
0
SEQEND
0
POLYLINE
8
0
62
5
66
1
40
1
41
1
0
VERTEX
8
0
10
2309
20
6011
0
VERTEX
8
0
10
2375
20
5912
0
SEQEND
0
POLYLINE
8
0
62
5
66
1
40
1
41
1
0
VERTEX
8
0
10
2135
20
5748
0
VERTEX
8
0
10
2145
20
5737
0
SEQEND
0
POLYLINE
8
0
62
3
66
1
40
1
41
1
0
VERTEX
8
0
10
2070
20
5826
0
VERTEX
8
0
10
2135
20
5748
0
SEQEND
0
POLYLINE
8
0
62
5
66
1
40
1
41
1
0
VERTEX
8
0
10
2108
20
5859
0
VERTEX
8
0
10
2182
20
5768
0
SEQEND
0
POLYLINE
8
0
62
5
66
1
40
1
41
1
0
VERTEX
8
0
10
2147
20
5890
0
VERTEX
8
0
10
2219
20
5798
0
SEQEND
0
POLYLINE
8
0
62
5
66
1
40
1
41
1
0
VERTEX
8
0
10
2227
20
5952
0
VERTEX
8
0
10
2296
20
5856
0
SEQEND
0
POLYLINE
8
0
62
5
66
1
40
1
41
1
0
VERTEX
8
0
10
2187
20
5922
0
VERTEX
8
0
10
2258
20
5828
0
SEQEND
0
POLYLINE
8
0
62
3
66
1
40
1
41
1
0
VERTEX
8
0
10
2336
20
5884
0
VERTEX
8
0
10
2424
20
5758
0
SEQEND
0
POLYLINE
8
0
62
5
66
1
40
1
41
1
0
VERTEX
8
0
10
1994
20
5760
0
VERTEX
8
0
10
2071
20
5674
0
SEQEND
0
POLYLINE
8
0
62
5
66
1
40
1
41
1
0
VERTEX
8
0
10
2032
20
5793
0
VERTEX
8
0
10
2108
20
5706
0
SEQEND
0
POLYLINE
8
0
62
5
66
1
40
1
41
1
0
VERTEX
8
0
10
2974
20
6224
0
VERTEX
8
0
10
2976
20
6218
0
SEQEND
0
POLYLINE
8
0
62
6
66
1
40
1
41
1
0
VERTEX
8
0
10
2972
20
6228
0
VERTEX
8
0
10
2974
20
6224
0
SEQEND
0
POLYLINE
8
0
62
3
66
1
40
1
41
1
0
VERTEX
8
0
10
2936
20
6326
0
VERTEX
8
0
10
2972
20
6228
0
SEQEND
0
POLYLINE
8
0
62
5
66
1
40
1
41
1
0
VERTEX
8
0
10
2889
20
6308
0
VERTEX
8
0
10
2931
20
6201
0
SEQEND
0
POLYLINE
8
0
62
5
66
1
40
1
41
1
0
VERTEX
8
0
10
2984
20
6343
0
VERTEX
8
0
10
3021
20
6234
0
SEQEND
0
POLYLINE
8
0
62
3
66
1
40
1
41
1
0
VERTEX
8
0
10
3206
20
6290
0
VERTEX
8
0
10
3246
20
6142
0
SEQEND
0
POLYLINE
8
0
62
5
66
1
40
1
41
1
0
VERTEX
8
0
10
3176
20
6401
0
VERTEX
8
0
10
3206
20
6290
0
SEQEND
0
POLYLINE
8
0
62
5
66
1
40
1
41
1
0
VERTEX
8
0
10
3128
20
6388
0
VERTEX
8
0
10
3159
20
6277
0
SEQEND
0
POLYLINE
8
0
62
5
66
1
40
1
41
1
0
VERTEX
8
0
10
3079
20
6374
0
VERTEX
8
0
10
3113
20
6263
0
SEQEND
0
POLYLINE
8
0
62
5
66
1
40
1
41
1
0
VERTEX
8
0
10
3032
20
6359
0
VERTEX
8
0
10
3067
20
6249
0
SEQEND
0
POLYLINE
8
0
62
5
66
1
40
1
41
1
0
VERTEX
8
0
10
2750
20
6251
0
VERTEX
8
0
10
2797
20
6145
0
SEQEND
0
POLYLINE
8
0
62
5
66
1
40
1
41
1
0
VERTEX
8
0
10
2704
20
6230
0
VERTEX
8
0
10
2753
20
6125
0
SEQEND
0
POLYLINE
8
0
62
5
66
1
40
1
41
1
0
VERTEX
8
0
10
2796
20
6271
0
VERTEX
8
0
10
2841
20
6165
0
SEQEND
0
POLYLINE
8
0
62
6
66
1
40
1
41
1
0
VERTEX
8
0
10
2482
20
6114
0
VERTEX
8
0
10
2532
20
6026
0
VERTEX
8
0
10
2533
20
6025
0
SEQEND
0
POLYLINE
8
0
62
5
66
1
40
1
41
1
0
VERTEX
8
0
10
2533
20
6025
0
VERTEX
8
0
10
2539
20
6014
0
SEQEND
0
POLYLINE
8
0
62
6
66
1
40
1
41
1
0
VERTEX
8
0
10
2616
20
5881
0
VERTEX
8
0
10
2674
20
5781
0
SEQEND
0
POLYLINE
8
0
62
3
66
1
40
1
41
1
0
VERTEX
8
0
10
2611
20
5891
0
VERTEX
8
0
10
2616
20
5881
0
SEQEND
0
POLYLINE
8
0
62
6
66
1
40
1
41
1
0
VERTEX
8
0
10
2539
20
6014
0
VERTEX
8
0
10
2611
20
5891
0
SEQEND
0
POLYLINE
8
0
62
3
66
1
40
1
41
1
0
VERTEX
8
0
10
3023
20
6087
0
VERTEX
8
0
10
3029
20
6073
0
SEQEND
0
POLYLINE
8
0
62
6
66
1
40
1
41
1
0
VERTEX
8
0
10
3029
20
6073
0
VERTEX
8
0
10
3068
20
5965
0
SEQEND
0
POLYLINE
8
0
62
5
66
1
40
1
41
1
0
VERTEX
8
0
10
2843
20
6290
0
VERTEX
8
0
10
2886
20
6183
0
SEQEND
0
POLYLINE
8
0
62
5
66
1
40
1
41
1
0
VERTEX
8
0
10
2525
20
6138
0
VERTEX
8
0
10
2581
20
6038
0
SEQEND
0
POLYLINE
8
0
62
5
66
1
40
1
41
1
0
VERTEX
8
0
10
2614
20
6186
0
VERTEX
8
0
10
2666
20
6083
0
SEQEND
0
POLYLINE
8
0
62
5
66
1
40
1
41
1
0
VERTEX
8
0
10
2659
20
6208
0
VERTEX
8
0
10
2709
20
6104
0
SEQEND
0
POLYLINE
8
0
62
5
66
1
40
1
41
1
0
VERTEX
8
0
10
2569
20
6162
0
VERTEX
8
0
10
2624
20
6061
0
SEQEND
0
POLYLINE
8
0
62
3
66
1
40
1
41
1
0
VERTEX
8
0
10
2753
20
6125
0
VERTEX
8
0
10
2818
20
5986
0
SEQEND
0
POLYLINE
8
0
62
6
66
1
40
1
41
1
0
VERTEX
8
0
10
2976
20
6218
0
VERTEX
8
0
10
3023
20
6087
0
SEQEND
0
POLYLINE
8
0
62
5
66
1
40
1
41
1
0
VERTEX
8
0
10
2395
20
6062
0
VERTEX
8
0
10
2456
20
5964
0
SEQEND
0
POLYLINE
8
0
62
5
66
1
40
1
41
1
0
VERTEX
8
0
10
2438
20
6088
0
VERTEX
8
0
10
2498
20
5989
0
SEQEND
0
POLYLINE
8
0
62
5
66
1
40
1
41
1
0
VERTEX
8
0
10
1531
20
5232
0
VERTEX
8
0
10
1629
20
5166
0
SEQEND
0
POLYLINE
8
0
62
5
66
1
40
1
41
1
0
VERTEX
8
0
10
1527
20
5002
0
VERTEX
8
0
10
1515
20
5009
0
SEQEND
0
POLYLINE
8
0
62
3
66
1
40
1
41
1
0
VERTEX
8
0
10
1546
20
4991
0
VERTEX
8
0
10
1527
20
5002
0
SEQEND
0
POLYLINE
8
0
62
6
66
1
40
1
41
1
0
VERTEX
8
0
10
1491
20
5022
0
VERTEX
8
0
10
1546
20
4991
0
SEQEND
0
POLYLINE
8
0
62
3
66
1
40
1
41
1
0
VERTEX
8
0
10
1515
20
5009
0
VERTEX
8
0
10
1491
20
5022
0
SEQEND
0
POLYLINE
8
0
62
5
66
1
40
1
41
1
0
VERTEX
8
0
10
1453
20
5103
0
VERTEX
8
0
10
1552
20
5043
0
SEQEND
0
POLYLINE
8
0
62
5
66
1
40
1
41
1
0
VERTEX
8
0
10
1290
20
4791
0
VERTEX
8
0
10
1396
20
4744
0
SEQEND
0
POLYLINE
8
0
62
5
66
1
40
1
41
1
0
VERTEX
8
0
10
1251
20
4698
0
VERTEX
8
0
10
1358
20
4655
0
SEQEND
0
POLYLINE
8
0
62
5
66
1
40
1
41
1
0
VERTEX
8
0
10
1270
20
4745
0
VERTEX
8
0
10
1376
20
4700
0
SEQEND
0
POLYLINE
8
0
62
5
66
1
40
1
41
1
0
VERTEX
8
0
10
1311
20
4837
0
VERTEX
8
0
10
1416
20
4788
0
SEQEND
0
POLYLINE
8
0
62
5
66
1
40
1
41
1
0
VERTEX
8
0
10
1403
20
5016
0
VERTEX
8
0
10
1503
20
4960
0
SEQEND
0
POLYLINE
8
0
62
5
66
1
40
1
41
1
0
VERTEX
8
0
10
1379
20
4972
0
VERTEX
8
0
10
1480
20
4917
0
SEQEND
0
POLYLINE
8
0
62
5
66
1
40
1
41
1
0
VERTEX
8
0
10
1355
20
4927
0
VERTEX
8
0
10
1458
20
4875
0
SEQEND
0
POLYLINE
8
0
62
5
66
1
40
1
41
1
0
VERTEX
8
0
10
1333
20
4882
0
VERTEX
8
0
10
1437
20
4832
0
SEQEND
0
POLYLINE
8
0
62
6
66
1
40
1
41
1
0
VERTEX
8
0
10
1427
20
5059
0
VERTEX
8
0
10
1491
20
5022
0
SEQEND
0
POLYLINE
8
0
62
3
66
1
40
1
41
1
0
VERTEX
8
0
10
1416
20
4788
0
VERTEX
8
0
10
1555
20
4723
0
SEQEND
0
POLYLINE
8
0
62
5
66
1
40
1
41
1
0
VERTEX
8
0
10
1479
20
5146
0
VERTEX
8
0
10
1577
20
5085
0
SEQEND
0
POLYLINE
8
0
62
5
66
1
40
1
41
1
0
VERTEX
8
0
10
1502
20
5190
0
VERTEX
8
0
10
1603
20
5125
0
SEQEND
0
POLYLINE
8
0
62
3
66
1
40
1
41
1
0
VERTEX
8
0
10
1251
20
4335
0
VERTEX
8
0
10
1399
20
4295
0
SEQEND
0
POLYLINE
8
0
62
6
66
1
40
1
41
1
0
VERTEX
8
0
10
1468
20
4512
0
VERTEX
8
0
10
1576
20
4473
0
SEQEND
0
POLYLINE
8
0
62
3
66
1
40
1
41
1
0
VERTEX
8
0
10
1454
20
4518
0
VERTEX
8
0
10
1468
20
4512
0
SEQEND
0
POLYLINE
8
0
62
6
66
1
40
1
41
1
0
VERTEX
8
0
10
1323
20
4565
0
VERTEX
8
0
10
1454
20
4518
0
SEQEND
0
POLYLINE
8
0
62
5
66
1
40
1
41
1
0
VERTEX
8
0
10
1310
20
4570
0
VERTEX
8
0
10
1323
20
4565
0
SEQEND
0
POLYLINE
8
0
62
5
66
1
40
1
41
1
0
VERTEX
8
0
10
1100
20
4219
0
VERTEX
8
0
10
1217
20
4194
0
SEQEND
0
POLYLINE
8
0
62
5
66
1
40
1
41
1
0
VERTEX
8
0
10
1091
20
4169
0
VERTEX
8
0
10
1207
20
4147
0
SEQEND
0
POLYLINE
8
0
62
5
66
1
40
1
41
1
0
VERTEX
8
0
10
1189
20
4102
0
VERTEX
8
0
10
1199
20
4100
0
SEQEND
0
POLYLINE
8
0
62
5
66
1
40
1
41
1
0
VERTEX
8
0
10
1074
20
4070
0
VERTEX
8
0
10
1191
20
4052
0
SEQEND
0
POLYLINE
8
0
62
3
66
1
40
1
41
1
0
VERTEX
8
0
10
1082
20
4120
0
VERTEX
8
0
10
1189
20
4102
0
SEQEND
0
POLYLINE
8
0
62
5
66
1
40
1
41
1
0
VERTEX
8
0
10
1067
20
4020
0
VERTEX
8
0
10
1184
20
4004
0
SEQEND
0
POLYLINE
8
0
62
5
66
1
40
1
41
1
0
VERTEX
8
0
10
1061
20
3970
0
VERTEX
8
0
10
1177
20
3956
0
SEQEND
0
POLYLINE
8
0
62
5
66
1
40
1
41
1
0
VERTEX
8
0
10
1056
20
3921
0
VERTEX
8
0
10
1172
20
3909
0
SEQEND
0
POLYLINE
8
0
62
5
66
1
40
1
41
1
0
VERTEX
8
0
10
1153
20
3861
0
VERTEX
8
0
10
1167
20
3860
0
SEQEND
0
POLYLINE
8
0
62
3
66
1
40
1
41
1
0
VERTEX
8
0
10
1052
20
3871
0
VERTEX
8
0
10
1153
20
3861
0
SEQEND
0
POLYLINE
8
0
62
5
66
1
40
1
41
1
0
VERTEX
8
0
10
1043
20
3670
0
VERTEX
8
0
10
1157
20
3668
0
SEQEND
0
POLYLINE
8
0
62
5
66
1
40
1
41
1
0
VERTEX
8
0
10
1044
20
3720
0
VERTEX
8
0
10
1158
20
3716
0
SEQEND
0
POLYLINE
8
0
62
5
66
1
40
1
41
1
0
VERTEX
8
0
10
1048
20
3820
0
VERTEX
8
0
10
1163
20
3812
0
SEQEND
0
POLYLINE
8
0
62
5
66
1
40
1
41
1
0
VERTEX
8
0
10
1046
20
3770
0
VERTEX
8
0
10
1160
20
3764
0
SEQEND
0
POLYLINE
8
0
62
6
66
1
40
1
41
1
0
VERTEX
8
0
10
1350
20
4073
0
VERTEX
8
0
10
1463
20
4053
0
SEQEND
0
POLYLINE
8
0
62
6
66
1
40
1
41
1
0
VERTEX
8
0
10
1215
20
4605
0
VERTEX
8
0
10
1310
20
4570
0
SEQEND
0
POLYLINE
8
0
62
5
66
1
40
1
41
1
0
VERTEX
8
0
10
1198
20
4557
0
VERTEX
8
0
10
1307
20
4520
0
SEQEND
0
POLYLINE
8
0
62
5
66
1
40
1
41
1
0
VERTEX
8
0
10
1127
20
4316
0
VERTEX
8
0
10
1239
20
4288
0
SEQEND
0
POLYLINE
8
0
62
5
66
1
40
1
41
1
0
VERTEX
8
0
10
1110
20
4268
0
VERTEX
8
0
10
1228
20
4241
0
SEQEND
0
POLYLINE
8
0
62
5
66
1
40
1
41
1
0
VERTEX
8
0
10
1182
20
4509
0
VERTEX
8
0
10
1292
20
4474
0
SEQEND
0
POLYLINE
8
0
62
5
66
1
40
1
41
1
0
VERTEX
8
0
10
1167
20
4462
0
VERTEX
8
0
10
1278
20
4428
0
SEQEND
0
POLYLINE
8
0
62
5
66
1
40
1
41
1
0
VERTEX
8
0
10
1153
20
4413
0
VERTEX
8
0
10
1264
20
4382
0
SEQEND
0
POLYLINE
8
0
62
5
66
1
40
1
41
1
0
VERTEX
8
0
10
1140
20
4365
0
VERTEX
8
0
10
1251
20
4335
0
SEQEND
0
POLYLINE
8
0
62
3
66
1
40
1
41
1
0
VERTEX
8
0
10
1167
20
3860
0
VERTEX
8
0
10
1320
20
3847
0
SEQEND
0
POLYLINE
8
0
62
3
66
1
40
1
41
1
0
VERTEX
8
0
10
1199
20
4100
0
VERTEX
8
0
10
1350
20
4073
0
SEQEND
0
POLYLINE
8
0
62
5
66
1
40
1
41
1
0
VERTEX
8
0
10
1233
20
4652
0
VERTEX
8
0
10
1340
20
4610
0
SEQEND
0
POLYLINE
8
0
62
6
66
1
40
1
41
1
0
VERTEX
8
0
10
2243
20
5620
0
VERTEX
8
0
10
2317
20
5532
0
SEQEND
0
POLYLINE
8
0
62
5
66
1
40
1
41
1
0
VERTEX
8
0
10
1850
20
5620
0
VERTEX
8
0
10
1933
20
5540
0
SEQEND
0
POLYLINE
8
0
62
5
66
1
40
1
41
1
0
VERTEX
8
0
10
1793
20
5406
0
VERTEX
8
0
10
1804
20
5396
0
SEQEND
0
POLYLINE
8
0
62
5
66
1
40
1
41
1
0
VERTEX
8
0
10
1748
20
5509
0
VERTEX
8
0
10
1835
20
5433
0
SEQEND
0
POLYLINE
8
0
62
3
66
1
40
1
41
1
0
VERTEX
8
0
10
1715
20
5471
0
VERTEX
8
0
10
1793
20
5406
0
SEQEND
0
POLYLINE
8
0
62
5
66
1
40
1
41
1
0
VERTEX
8
0
10
1647
20
5212
0
VERTEX
8
0
10
1657
20
5205
0
SEQEND
0
POLYLINE
8
0
62
6
66
1
40
1
41
1
0
VERTEX
8
0
10
1921
20
5298
0
VERTEX
8
0
10
2009
20
5224
0
SEQEND
0
POLYLINE
8
0
62
5
66
1
40
1
41
1
0
VERTEX
8
0
10
1651
20
5394
0
VERTEX
8
0
10
1743
20
5322
0
SEQEND
0
POLYLINE
8
0
62
5
66
1
40
1
41
1
0
VERTEX
8
0
10
1815
20
5584
0
VERTEX
8
0
10
1899
20
5505
0
SEQEND
0
POLYLINE
8
0
62
5
66
1
40
1
41
1
0
VERTEX
8
0
10
1781
20
5547
0
VERTEX
8
0
10
1867
20
5470
0
SEQEND
0
POLYLINE
8
0
62
5
66
1
40
1
41
1
0
VERTEX
8
0
10
1682
20
5433
0
VERTEX
8
0
10
1773
20
5359
0
SEQEND
0
POLYLINE
8
0
62
3
66
1
40
1
41
1
0
VERTEX
8
0
10
1804
20
5396
0
VERTEX
8
0
10
1921
20
5298
0
SEQEND
0
POLYLINE
8
0
62
3
66
1
40
1
41
1
0
VERTEX
8
0
10
1966
20
5575
0
VERTEX
8
0
10
2075
20
5466
0
SEQEND
0
POLYLINE
8
0
62
3
66
1
40
1
41
1
0
VERTEX
8
0
10
1657
20
5205
0
VERTEX
8
0
10
1783
20
5117
0
SEQEND
0
POLYLINE
8
0
62
6
66
1
40
1
41
1
0
VERTEX
8
0
10
1546
20
4991
0
VERTEX
8
0
10
1760
20
4867
0
SEQEND
0
POLYLINE
8
0
62
5
66
1
40
1
41
1
0
VERTEX
8
0
10
1885
20
5656
0
VERTEX
8
0
10
1966
20
5575
0
SEQEND
0
POLYLINE
8
0
62
5
66
1
40
1
41
1
0
VERTEX
8
0
10
1921
20
5691
0
VERTEX
8
0
10
2001
20
5608
0
SEQEND
0
POLYLINE
8
0
62
5
66
1
40
1
41
1
0
VERTEX
8
0
10
1620
20
5354
0
VERTEX
8
0
10
1713
20
5283
0
SEQEND
0
POLYLINE
8
0
62
5
66
1
40
1
41
1
0
VERTEX
8
0
10
1589
20
5314
0
VERTEX
8
0
10
1685
20
5245
0
SEQEND
0
POLYLINE
8
0
62
3
66
1
40
1
41
1
0
VERTEX
8
0
10
1559
20
5273
0
VERTEX
8
0
10
1647
20
5212
0
SEQEND
0
POLYLINE
8
0
62
3
66
1
40
1
41
1
0
VERTEX
8
0
10
2145
20
5737
0
VERTEX
8
0
10
2243
20
5620
0
SEQEND
0
POLYLINE
8
0
62
6
66
1
40
1
41
1
0
VERTEX
8
0
10
1921
20
1941
0
VERTEX
8
0
10
2009
20
2015
0
SEQEND
0
POLYLINE
8
0
62
5
66
1
40
1
41
1
0
VERTEX
8
0
10
1647
20
2027
0
VERTEX
8
0
10
1657
20
2034
0
SEQEND
0
POLYLINE
8
0
62
3
66
1
40
1
41
1
0
VERTEX
8
0
10
1657
20
2034
0
VERTEX
8
0
10
1783
20
2122
0
SEQEND
0
POLYLINE
8
0
62
5
66
1
40
1
41
1
0
VERTEX
8
0
10
1748
20
1729
0
VERTEX
8
0
10
1835
20
1806
0
SEQEND
0
POLYLINE
8
0
62
5
66
1
40
1
41
1
0
VERTEX
8
0
10
1682
20
1806
0
VERTEX
8
0
10
1773
20
1880
0
SEQEND
0
POLYLINE
8
0
62
5
66
1
40
1
41
1
0
VERTEX
8
0
10
1793
20
1833
0
VERTEX
8
0
10
1804
20
1842
0
SEQEND
0
POLYLINE
8
0
62
3
66
1
40
1
41
1
0
VERTEX
8
0
10
1715
20
1767
0
VERTEX
8
0
10
1793
20
1833
0
SEQEND
0
POLYLINE
8
0
62
5
66
1
40
1
41
1
0
VERTEX
8
0
10
1651
20
1844
0
VERTEX
8
0
10
1743
20
1917
0
SEQEND
0
POLYLINE
8
0
62
5
66
1
40
1
41
1
0
VERTEX
8
0
10
1781
20
1692
0
VERTEX
8
0
10
1867
20
1769
0
SEQEND
0
POLYLINE
8
0
62
3
66
1
40
1
41
1
0
VERTEX
8
0
10
1804
20
1842
0
VERTEX
8
0
10
1921
20
1941
0
SEQEND
0
POLYLINE
8
0
62
6
66
1
40
1
41
1
0
VERTEX
8
0
10
1350
20
3166
0
VERTEX
8
0
10
1463
20
3186
0
SEQEND
0
POLYLINE
8
0
62
5
66
1
40
1
41
1
0
VERTEX
8
0
10
1046
20
3469
0
VERTEX
8
0
10
1160
20
3475
0
SEQEND
0
POLYLINE
8
0
62
5
66
1
40
1
41
1
0
VERTEX
8
0
10
1044
20
3519
0
VERTEX
8
0
10
1158
20
3523
0
SEQEND
0
POLYLINE
8
0
62
5
66
1
40
1
41
1
0
VERTEX
8
0
10
1048
20
3419
0
VERTEX
8
0
10
1163
20
3427
0
SEQEND
0
POLYLINE
8
0
62
5
66
1
40
1
41
1
0
VERTEX
8
0
10
1043
20
3569
0
VERTEX
8
0
10
1157
20
3571
0
SEQEND
0
POLYLINE
8
0
62
5
66
1
40
1
41
1
0
VERTEX
8
0
10
1153
20
3377
0
VERTEX
8
0
10
1167
20
3378
0
SEQEND
0
POLYLINE
8
0
62
5
66
1
40
1
41
1
0
VERTEX
8
0
10
1067
20
3218
0
VERTEX
8
0
10
1184
20
3235
0
SEQEND
0
POLYLINE
8
0
62
5
66
1
40
1
41
1
0
VERTEX
8
0
10
1061
20
3269
0
VERTEX
8
0
10
1177
20
3283
0
SEQEND
0
POLYLINE
8
0
62
3
66
1
40
1
41
1
0
VERTEX
8
0
10
1052
20
3368
0
VERTEX
8
0
10
1153
20
3377
0
SEQEND
0
POLYLINE
8
0
62
5
66
1
40
1
41
1
0
VERTEX
8
0
10
1056
20
3318
0
VERTEX
8
0
10
1172
20
3330
0
SEQEND
0
POLYLINE
8
0
62
5
66
1
40
1
41
1
0
VERTEX
8
0
10
1074
20
3168
0
VERTEX
8
0
10
1191
20
3187
0
SEQEND
0
POLYLINE
8
0
62
5
66
1
40
1
41
1
0
VERTEX
8
0
10
1090
20
3069
0
VERTEX
8
0
10
1207
20
3092
0
SEQEND
0
POLYLINE
8
0
62
5
66
1
40
1
41
1
0
VERTEX
8
0
10
1189
20
3137
0
VERTEX
8
0
10
1199
20
3139
0
SEQEND
0
POLYLINE
8
0
62
3
66
1
40
1
41
1
0
VERTEX
8
0
10
1082
20
3118
0
VERTEX
8
0
10
1189
20
3137
0
SEQEND
0
POLYLINE
8
0
62
5
66
1
40
1
41
1
0
VERTEX
8
0
10
1100
20
3020
0
VERTEX
8
0
10
1217
20
3045
0
SEQEND
0
POLYLINE
8
0
62
3
66
1
40
1
41
1
0
VERTEX
8
0
10
1251
20
2904
0
VERTEX
8
0
10
1399
20
2944
0
SEQEND
0
POLYLINE
8
0
62
6
66
1
40
1
41
1
0
VERTEX
8
0
10
1468
20
2726
0
VERTEX
8
0
10
1576
20
2766
0
SEQEND
0
POLYLINE
8
0
62
3
66
1
40
1
41
1
0
VERTEX
8
0
10
1454
20
2721
0
VERTEX
8
0
10
1468
20
2726
0
SEQEND
0
POLYLINE
8
0
62
6
66
1
40
1
41
1
0
VERTEX
8
0
10
1323
20
2674
0
VERTEX
8
0
10
1454
20
2721
0
SEQEND
0
POLYLINE
8
0
62
5
66
1
40
1
41
1
0
VERTEX
8
0
10
1317
20
2671
0
VERTEX
8
0
10
1323
20
2674
0
SEQEND
0
POLYLINE
8
0
62
6
66
1
40
1
41
1
0
VERTEX
8
0
10
1313
20
2670
0
VERTEX
8
0
10
1317
20
2671
0
SEQEND
0
POLYLINE
8
0
62
5
66
1
40
1
41
1
0
VERTEX
8
0
10
1140
20
2874
0
VERTEX
8
0
10
1251
20
2904
0
SEQEND
0
POLYLINE
8
0
62
5
66
1
40
1
41
1
0
VERTEX
8
0
10
1153
20
2826
0
VERTEX
8
0
10
1264
20
2857
0
SEQEND
0
POLYLINE
8
0
62
6
66
1
40
1
41
1
0
VERTEX
8
0
10
1042
20
3619
0
VERTEX
8
0
10
1426
20
3619
0
SEQEND
0
POLYLINE
8
0
62
5
66
1
40
1
41
1
0
VERTEX
8
0
10
1115
20
2972
0
VERTEX
8
0
10
1228
20
2998
0
SEQEND
0
POLYLINE
8
0
62
5
66
1
40
1
41
1
0
VERTEX
8
0
10
1127
20
2923
0
VERTEX
8
0
10
1239
20
2951
0
SEQEND
0
POLYLINE
8
0
62
5
66
1
40
1
41
1
0
VERTEX
8
0
10
1182
20
2730
0
VERTEX
8
0
10
1292
20
2765
0
SEQEND
0
POLYLINE
8
0
62
5
66
1
40
1
41
1
0
VERTEX
8
0
10
1198
20
2682
0
VERTEX
8
0
10
1307
20
2719
0
SEQEND
0
POLYLINE
8
0
62
5
66
1
40
1
41
1
0
VERTEX
8
0
10
1167
20
2777
0
VERTEX
8
0
10
1278
20
2811
0
SEQEND
0
POLYLINE
8
0
62
3
66
1
40
1
41
1
0
VERTEX
8
0
10
1199
20
3139
0
VERTEX
8
0
10
1350
20
3166
0
SEQEND
0
POLYLINE
8
0
62
3
66
1
40
1
41
1
0
VERTEX
8
0
10
1167
20
3378
0
VERTEX
8
0
10
1320
20
3392
0
SEQEND
0
POLYLINE
8
0
62
5
66
1
40
1
41
1
0
VERTEX
8
0
10
1270
20
2494
0
VERTEX
8
0
10
1376
20
2539
0
SEQEND
0
POLYLINE
8
0
62
5
66
1
40
1
41
1
0
VERTEX
8
0
10
1290
20
2448
0
VERTEX
8
0
10
1396
20
2495
0
SEQEND
0
POLYLINE
8
0
62
5
66
1
40
1
41
1
0
VERTEX
8
0
10
1233
20
2587
0
VERTEX
8
0
10
1340
20
2629
0
SEQEND
0
POLYLINE
8
0
62
5
66
1
40
1
41
1
0
VERTEX
8
0
10
1251
20
2541
0
VERTEX
8
0
10
1358
20
2584
0
SEQEND
0
POLYLINE
8
0
62
6
66
1
40
1
41
1
0
VERTEX
8
0
10
1521
20
2233
0
VERTEX
8
0
10
1533
20
2240
0
SEQEND
0
POLYLINE
8
0
62
6
66
1
40
1
41
1
0
VERTEX
8
0
10
1533
20
2240
0
VERTEX
8
0
10
1538
20
2243
0
VERTEX
8
0
10
1540
20
2244
0
VERTEX
8
0
10
1760
20
2371
0
SEQEND
0
POLYLINE
8
0
62
6
66
1
40
1
41
1
0
VERTEX
8
0
10
1427
20
2179
0
VERTEX
8
0
10
1520
20
2232
0
VERTEX
8
0
10
1521
20
2233
0
SEQEND
0
POLYLINE
8
0
62
5
66
1
40
1
41
1
0
VERTEX
8
0
10
1521
20
2233
0
VERTEX
8
0
10
1527
20
2237
0
SEQEND
0
POLYLINE
8
0
62
3
66
1
40
1
41
1
0
VERTEX
8
0
10
1527
20
2237
0
VERTEX
8
0
10
1533
20
2240
0
SEQEND
0
POLYLINE
8
0
62
5
66
1
40
1
41
1
0
VERTEX
8
0
10
1333
20
2357
0
VERTEX
8
0
10
1437
20
2407
0
SEQEND
0
POLYLINE
8
0
62
5
66
1
40
1
41
1
0
VERTEX
8
0
10
1311
20
2402
0
VERTEX
8
0
10
1416
20
2451
0
SEQEND
0
POLYLINE
8
0
62
3
66
1
40
1
41
1
0
VERTEX
8
0
10
1416
20
2451
0
VERTEX
8
0
10
1555
20
2516
0
SEQEND
0
POLYLINE
8
0
62
5
66
1
40
1
41
1
0
VERTEX
8
0
10
1403
20
2223
0
VERTEX
8
0
10
1503
20
2279
0
SEQEND
0
POLYLINE
8
0
62
5
66
1
40
1
41
1
0
VERTEX
8
0
10
1379
20
2267
0
VERTEX
8
0
10
1480
20
2322
0
SEQEND
0
POLYLINE
8
0
62
5
66
1
40
1
41
1
0
VERTEX
8
0
10
1355
20
2312
0
VERTEX
8
0
10
1458
20
2364
0
SEQEND
0
POLYLINE
8
0
62
5
66
1
40
1
41
1
0
VERTEX
8
0
10
1506
20
2051
0
VERTEX
8
0
10
1603
20
2114
0
SEQEND
0
POLYLINE
8
0
62
5
66
1
40
1
41
1
0
VERTEX
8
0
10
1479
20
2093
0
VERTEX
8
0
10
1577
20
2154
0
SEQEND
0
POLYLINE
8
0
62
5
66
1
40
1
41
1
0
VERTEX
8
0
10
1530
20
2006
0
VERTEX
8
0
10
1629
20
2073
0
SEQEND
0
POLYLINE
8
0
62
5
66
1
40
1
41
1
0
VERTEX
8
0
10
1453
20
2136
0
VERTEX
8
0
10
1552
20
2196
0
SEQEND
0
POLYLINE
8
0
62
3
66
1
40
1
41
1
0
VERTEX
8
0
10
1215
20
2634
0
VERTEX
8
0
10
1313
20
2670
0
SEQEND
0
POLYLINE
8
0
62
6
66
1
40
1
41
1
0
VERTEX
8
0
10
2674
20
1458
0
VERTEX
8
0
10
2550
20
1243
0
VERTEX
8
0
10
2519
20
1189
0
VERTEX
8
0
10
2482
20
1125
0
SEQEND
0
POLYLINE
8
0
62
3
66
1
40
1
41
1
0
VERTEX
8
0
10
2519
20
1189
0
VERTEX
8
0
10
2532
20
1213
0
SEQEND
0
POLYLINE
8
0
62
5
66
1
40
1
41
1
0
VERTEX
8
0
10
2532
20
1213
0
VERTEX
8
0
10
2539
20
1225
0
SEQEND
0
POLYLINE
8
0
62
3
66
1
40
1
41
1
0
VERTEX
8
0
10
2539
20
1225
0
VERTEX
8
0
10
2550
20
1243
0
SEQEND
0
POLYLINE
8
0
62
5
66
1
40
1
41
1
0
VERTEX
8
0
10
2659
20
1031
0
VERTEX
8
0
10
2709
20
1135
0
SEQEND
0
POLYLINE
8
0
62
5
66
1
40
1
41
1
0
VERTEX
8
0
10
2614
20
1053
0
VERTEX
8
0
10
2666
20
1156
0
SEQEND
0
POLYLINE
8
0
62
5
66
1
40
1
41
1
0
VERTEX
8
0
10
2796
20
968
0
VERTEX
8
0
10
2841
20
1074
0
SEQEND
0
POLYLINE
8
0
62
5
66
1
40
1
41
1
0
VERTEX
8
0
10
2750
20
988
0
VERTEX
8
0
10
2797
20
1094
0
SEQEND
0
POLYLINE
8
0
62
5
66
1
40
1
41
1
0
VERTEX
8
0
10
2704
20
1009
0
VERTEX
8
0
10
2753
20
1114
0
SEQEND
0
POLYLINE
8
0
62
3
66
1
40
1
41
1
0
VERTEX
8
0
10
3206
20
949
0
VERTEX
8
0
10
3246
20
1097
0
SEQEND
0
POLYLINE
8
0
62
3
66
1
40
1
41
1
0
VERTEX
8
0
10
3023
20
1151
0
VERTEX
8
0
10
3029
20
1166
0
SEQEND
0
POLYLINE
8
0
62
6
66
1
40
1
41
1
0
VERTEX
8
0
10
2976
20
1021
0
VERTEX
8
0
10
3023
20
1151
0
SEQEND
0
POLYLINE
8
0
62
5
66
1
40
1
41
1
0
VERTEX
8
0
10
2971
20
1008
0
VERTEX
8
0
10
2976
20
1021
0
SEQEND
0
POLYLINE
8
0
62
5
66
1
40
1
41
1
0
VERTEX
8
0
10
2889
20
931
0
VERTEX
8
0
10
2931
20
1038
0
SEQEND
0
POLYLINE
8
0
62
5
66
1
40
1
41
1
0
VERTEX
8
0
10
3128
20
851
0
VERTEX
8
0
10
3159
20
962
0
SEQEND
0
POLYLINE
8
0
62
5
66
1
40
1
41
1
0
VERTEX
8
0
10
3176
20
838
0
VERTEX
8
0
10
3206
20
949
0
SEQEND
0
POLYLINE
8
0
62
5
66
1
40
1
41
1
0
VERTEX
8
0
10
2984
20
896
0
VERTEX
8
0
10
3021
20
1005
0
SEQEND
0
POLYLINE
8
0
62
5
66
1
40
1
41
1
0
VERTEX
8
0
10
3079
20
865
0
VERTEX
8
0
10
3113
20
976
0
SEQEND
0
POLYLINE
8
0
62
6
66
1
40
1
41
1
0
VERTEX
8
0
10
2936
20
913
0
VERTEX
8
0
10
2971
20
1008
0
SEQEND
0
POLYLINE
8
0
62
5
66
1
40
1
41
1
0
VERTEX
8
0
10
3032
20
880
0
VERTEX
8
0
10
3067
20
990
0
SEQEND
0
POLYLINE
8
0
62
5
66
1
40
1
41
1
0
VERTEX
8
0
10
2843
20
949
0
VERTEX
8
0
10
2886
20
1056
0
SEQEND
0
POLYLINE
8
0
62
5
66
1
40
1
41
1
0
VERTEX
8
0
10
2569
20
1077
0
VERTEX
8
0
10
2624
20
1178
0
SEQEND
0
POLYLINE
8
0
62
5
66
1
40
1
41
1
0
VERTEX
8
0
10
2525
20
1101
0
VERTEX
8
0
10
2581
20
1201
0
SEQEND
0
POLYLINE
8
0
62
6
66
1
40
1
41
1
0
VERTEX
8
0
10
3029
20
1166
0
VERTEX
8
0
10
3068
20
1274
0
SEQEND
0
POLYLINE
8
0
62
3
66
1
40
1
41
1
0
VERTEX
8
0
10
2753
20
1114
0
VERTEX
8
0
10
2818
20
1253
0
SEQEND
0
POLYLINE
8
0
62
5
66
1
40
1
41
1
0
VERTEX
8
0
10
2135
20
1490
0
VERTEX
8
0
10
2145
20
1501
0
SEQEND
0
POLYLINE
8
0
62
5
66
1
40
1
41
1
0
VERTEX
8
0
10
2329
20
1344
0
VERTEX
8
0
10
2336
20
1355
0
SEQEND
0
POLYLINE
8
0
62
3
66
1
40
1
41
1
0
VERTEX
8
0
10
2268
20
1256
0
VERTEX
8
0
10
2329
20
1344
0
SEQEND
0
POLYLINE
8
0
62
5
66
1
40
1
41
1
0
VERTEX
8
0
10
2311
20
1232
0
VERTEX
8
0
10
2375
20
1327
0
SEQEND
0
POLYLINE
8
0
62
5
66
1
40
1
41
1
0
VERTEX
8
0
10
2353
20
1204
0
VERTEX
8
0
10
2416
20
1301
0
SEQEND
0
POLYLINE
8
0
62
5
66
1
40
1
41
1
0
VERTEX
8
0
10
2147
20
1348
0
VERTEX
8
0
10
2219
20
1441
0
SEQEND
0
POLYLINE
8
0
62
5
66
1
40
1
41
1
0
VERTEX
8
0
10
2108
20
1380
0
VERTEX
8
0
10
2182
20
1471
0
SEQEND
0
POLYLINE
8
0
62
5
66
1
40
1
41
1
0
VERTEX
8
0
10
2227
20
1286
0
VERTEX
8
0
10
2296
20
1383
0
SEQEND
0
POLYLINE
8
0
62
3
66
1
40
1
41
1
0
VERTEX
8
0
10
2070
20
1412
0
VERTEX
8
0
10
2135
20
1490
0
SEQEND
0
POLYLINE
8
0
62
5
66
1
40
1
41
1
0
VERTEX
8
0
10
2187
20
1317
0
VERTEX
8
0
10
2258
20
1411
0
SEQEND
0
POLYLINE
8
0
62
3
66
1
40
1
41
1
0
VERTEX
8
0
10
2336
20
1355
0
VERTEX
8
0
10
2424
20
1481
0
SEQEND
0
POLYLINE
8
0
62
3
66
1
40
1
41
1
0
VERTEX
8
0
10
2145
20
1501
0
VERTEX
8
0
10
2243
20
1619
0
SEQEND
0
POLYLINE
8
0
62
5
66
1
40
1
41
1
0
VERTEX
8
0
10
1957
20
1513
0
VERTEX
8
0
10
2036
20
1597
0
SEQEND
0
POLYLINE
8
0
62
5
66
1
40
1
41
1
0
VERTEX
8
0
10
1921
20
1547
0
VERTEX
8
0
10
2001
20
1631
0
SEQEND
0
POLYLINE
8
0
62
5
66
1
40
1
41
1
0
VERTEX
8
0
10
1885
20
1583
0
VERTEX
8
0
10
1966
20
1664
0
SEQEND
0
POLYLINE
8
0
62
5
66
1
40
1
41
1
0
VERTEX
8
0
10
2032
20
1445
0
VERTEX
8
0
10
2108
20
1533
0
SEQEND
0
POLYLINE
8
0
62
5
66
1
40
1
41
1
0
VERTEX
8
0
10
1994
20
1479
0
VERTEX
8
0
10
2071
20
1565
0
SEQEND
0
POLYLINE
8
0
62
5
66
1
40
1
41
1
0
VERTEX
8
0
10
2395
20
1177
0
VERTEX
8
0
10
2456
20
1275
0
SEQEND
0
POLYLINE
8
0
62
5
66
1
40
1
41
1
0
VERTEX
8
0
10
2438
20
1151
0
VERTEX
8
0
10
2498
20
1250
0
SEQEND
0
POLYLINE
8
0
62
5
66
1
40
1
41
1
0
VERTEX
8
0
10
1619
20
1884
0
VERTEX
8
0
10
1713
20
1956
0
SEQEND
0
POLYLINE
8
0
62
5
66
1
40
1
41
1
0
VERTEX
8
0
10
1815
20
1655
0
VERTEX
8
0
10
1899
20
1734
0
SEQEND
0
POLYLINE
8
0
62
5
66
1
40
1
41
1
0
VERTEX
8
0
10
1850
20
1618
0
VERTEX
8
0
10
1933
20
1699
0
SEQEND
0
POLYLINE
8
0
62
3
66
1
40
1
41
1
0
VERTEX
8
0
10
1559
20
1965
0
VERTEX
8
0
10
1647
20
2027
0
SEQEND
0
POLYLINE
8
0
62
5
66
1
40
1
41
1
0
VERTEX
8
0
10
1589
20
1924
0
VERTEX
8
0
10
1685
20
1994
0
SEQEND
0
POLYLINE
8
0
62
3
66
1
40
1
41
1
0
VERTEX
8
0
10
1966
20
1664
0
VERTEX
8
0
10
2075
20
1773
0
SEQEND
0
POLYLINE
8
0
62
6
66
1
40
1
41
1
0
VERTEX
8
0
10
2243
20
1619
0
VERTEX
8
0
10
2317
20
1707
0
SEQEND
0
POLYLINE
8
0
62
6
66
1
40
1
41
1
0
VERTEX
8
0
10
6375
20
2726
0
VERTEX
8
0
10
6267
20
2766
0
SEQEND
0
POLYLINE
8
0
62
3
66
1
40
1
41
1
0
VERTEX
8
0
10
6390
20
2721
0
VERTEX
8
0
10
6375
20
2726
0
SEQEND
0
POLYLINE
8
0
62
3
66
1
40
1
41
1
0
VERTEX
8
0
10
6316
20
2237
0
VERTEX
8
0
10
6311
20
2240
0
SEQEND
0
POLYLINE
8
0
62
5
66
1
40
1
41
1
0
VERTEX
8
0
10
6323
20
2233
0
VERTEX
8
0
10
6316
20
2237
0
SEQEND
0
POLYLINE
8
0
62
6
66
1
40
1
41
1
0
VERTEX
8
0
10
6416
20
2179
0
VERTEX
8
0
10
6324
20
2232
0
VERTEX
8
0
10
6323
20
2233
0
VERTEX
8
0
10
6311
20
2240
0
VERTEX
8
0
10
6305
20
2243
0
VERTEX
8
0
10
6304
20
2244
0
VERTEX
8
0
10
6083
20
2371
0
SEQEND
0
POLYLINE
8
0
62
5
66
1
40
1
41
1
0
VERTEX
8
0
10
6488
20
2312
0
VERTEX
8
0
10
6385
20
2364
0
SEQEND
0
POLYLINE
8
0
62
5
66
1
40
1
41
1
0
VERTEX
8
0
10
6464
20
2267
0
VERTEX
8
0
10
6363
20
2322
0
SEQEND
0
POLYLINE
8
0
62
5
66
1
40
1
41
1
0
VERTEX
8
0
10
6440
20
2223
0
VERTEX
8
0
10
6340
20
2279
0
SEQEND
0
POLYLINE
8
0
62
3
66
1
40
1
41
1
0
VERTEX
8
0
10
6427
20
2451
0
VERTEX
8
0
10
6288
20
2516
0
SEQEND
0
POLYLINE
8
0
62
5
66
1
40
1
41
1
0
VERTEX
8
0
10
6051
20
1833
0
VERTEX
8
0
10
6040
20
1842
0
SEQEND
0
POLYLINE
8
0
62
3
66
1
40
1
41
1
0
VERTEX
8
0
10
6040
20
1842
0
VERTEX
8
0
10
5922
20
1941
0
SEQEND
0
POLYLINE
8
0
62
6
66
1
40
1
41
1
0
VERTEX
8
0
10
5922
20
1941
0
VERTEX
8
0
10
5834
20
2015
0
SEQEND
0
POLYLINE
8
0
62
5
66
1
40
1
41
1
0
VERTEX
8
0
10
6062
20
1692
0
VERTEX
8
0
10
5976
20
1769
0
SEQEND
0
POLYLINE
8
0
62
5
66
1
40
1
41
1
0
VERTEX
8
0
10
6197
20
2027
0
VERTEX
8
0
10
6186
20
2034
0
SEQEND
0
POLYLINE
8
0
62
5
66
1
40
1
41
1
0
VERTEX
8
0
10
6255
20
1924
0
VERTEX
8
0
10
6158
20
1994
0
SEQEND
0
POLYLINE
8
0
62
3
66
1
40
1
41
1
0
VERTEX
8
0
10
6285
20
1965
0
VERTEX
8
0
10
6197
20
2027
0
SEQEND
0
POLYLINE
8
0
62
5
66
1
40
1
41
1
0
VERTEX
8
0
10
6193
20
1844
0
VERTEX
8
0
10
6100
20
1917
0
SEQEND
0
POLYLINE
8
0
62
5
66
1
40
1
41
1
0
VERTEX
8
0
10
6364
20
2093
0
VERTEX
8
0
10
6266
20
2154
0
SEQEND
0
POLYLINE
8
0
62
5
66
1
40
1
41
1
0
VERTEX
8
0
10
6337
20
2051
0
VERTEX
8
0
10
6240
20
2114
0
SEQEND
0
POLYLINE
8
0
62
5
66
1
40
1
41
1
0
VERTEX
8
0
10
6309
20
2009
0
VERTEX
8
0
10
6214
20
2073
0
SEQEND
0
POLYLINE
8
0
62
5
66
1
40
1
41
1
0
VERTEX
8
0
10
6224
20
1884
0
VERTEX
8
0
10
6130
20
1956
0
SEQEND
0
POLYLINE
8
0
62
5
66
1
40
1
41
1
0
VERTEX
8
0
10
6162
20
1806
0
VERTEX
8
0
10
6070
20
1880
0
SEQEND
0
POLYLINE
8
0
62
5
66
1
40
1
41
1
0
VERTEX
8
0
10
6096
20
1729
0
VERTEX
8
0
10
6008
20
1806
0
SEQEND
0
POLYLINE
8
0
62
3
66
1
40
1
41
1
0
VERTEX
8
0
10
6129
20
1767
0
VERTEX
8
0
10
6051
20
1833
0
SEQEND
0
POLYLINE
8
0
62
5
66
1
40
1
41
1
0
VERTEX
8
0
10
6390
20
2136
0
VERTEX
8
0
10
6291
20
2196
0
SEQEND
0
POLYLINE
8
0
62
3
66
1
40
1
41
1
0
VERTEX
8
0
10
6186
20
2034
0
VERTEX
8
0
10
6060
20
2122
0
SEQEND
0
POLYLINE
8
0
62
1
66
1
40
1
41
1
0
VERTEX
8
0
10
3667
20
3306
0
VERTEX
8
0
10
3672
20
3310
0
VERTEX
8
0
10
3678
20
3331
0
VERTEX
8
0
10
3651
20
3331
0
VERTEX
8
0
10
3643
20
3331
0
SEQEND
0
POLYLINE
8
0
62
1
66
1
40
1
41
1
0
VERTEX
8
0
10
3616
20
3357
0
VERTEX
8
0
10
3621
20
3361
0
VERTEX
8
0
10
3642
20
3367
0
VERTEX
8
0
10
3664
20
3360
0
VERTEX
8
0
10
3667
20
3357
0
VERTEX
8
0
10
3668
20
3356
0
SEQEND
0
POLYLINE
8
0
62
1
66
1
40
1
41
1
0
VERTEX
8
0
10
3668
20
3356
0
VERTEX
8
0
10
3678
20
3331
0
VERTEX
8
0
10
3834
20
3331
0
SEQEND
0
POLYLINE
8
0
62
3
66
1
40
1
41
1
0
VERTEX
8
0
10
3922
20
3235
0
VERTEX
8
0
10
3922
20
3331
0
SEQEND
0
POLYLINE
8
0
62
252
66
1
40
20
41
20
0
VERTEX
8
0
10
3668
20
3356
0
VERTEX
8
0
10
3907
20
3595
0
SEQEND
0
POLYLINE
8
0
62
1
66
1
40
20
41
20
0
VERTEX
8
0
10
3834
20
3331
0
VERTEX
8
0
10
3922
20
3331
0
SEQEND
0
POLYLINE
8
0
62
3
66
1
40
1
41
1
0
VERTEX
8
0
10
3922
20
3331
0
VERTEX
8
0
10
3922
20
3619
0
SEQEND
0
POLYLINE
8
0
62
252
66
1
40
20
41
20
0
VERTEX
8
0
10
3668
20
3356
0
VERTEX
8
0
10
3647
20
3335
0
VERTEX
8
0
10
3651
20
3331
0
SEQEND
0
POLYLINE
8
0
62
252
66
1
40
20
41
20
0
VERTEX
8
0
10
3643
20
3331
0
VERTEX
8
0
10
3647
20
3335
0
VERTEX
8
0
10
3643
20
3339
0
SEQEND
0
POLYLINE
8
0
62
252
66
1
40
20
41
20
0
VERTEX
8
0
10
3643
20
3331
0
VERTEX
8
0
10
3643
20
3330
0
SEQEND
0
POLYLINE
8
0
62
252
66
1
40
20
41
20
0
VERTEX
8
0
10
3642
20
3331
0
VERTEX
8
0
10
3643
20
3330
0
SEQEND
0
POLYLINE
8
0
62
1
66
1
40
1
41
1
0
VERTEX
8
0
10
3643
20
3331
0
VERTEX
8
0
10
3642
20
3331
0
SEQEND
0
POLYLINE
8
0
62
1
66
1
40
1
41
1
0
VERTEX
8
0
10
3617
20
3305
0
VERTEX
8
0
10
3616
20
3306
0
VERTEX
8
0
10
3613
20
3309
0
VERTEX
8
0
10
3606
20
3331
0
VERTEX
8
0
10
3450
20
3331
0
SEQEND
0
POLYLINE
8
0
62
252
66
1
40
20
41
20
0
VERTEX
8
0
10
3643
20
3330
0
VERTEX
8
0
10
3617
20
3305
0
SEQEND
0
POLYLINE
8
0
62
1
66
1
40
1
41
1
0
VERTEX
8
0
10
3617
20
3305
0
VERTEX
8
0
10
3642
20
3295
0
VERTEX
8
0
10
3667
20
3306
0
SEQEND
0
POLYLINE
8
0
62
1
66
1
40
1
41
1
0
VERTEX
8
0
10
3606
20
3331
0
VERTEX
8
0
10
3616
20
3357
0
SEQEND
0
POLYLINE
8
0
62
252
66
1
40
20
41
20
0
VERTEX
8
0
10
3616
20
3357
0
VERTEX
8
0
10
3642
20
3331
0
SEQEND
0
POLYLINE
8
0
62
252
66
1
40
20
41
20
0
VERTEX
8
0
10
3616
20
3357
0
VERTEX
8
0
10
3378
20
3595
0
SEQEND
0
POLYLINE
8
0
62
252
66
1
40
20
41
20
0
VERTEX
8
0
10
3362
20
3050
0
VERTEX
8
0
10
3617
20
3305
0
SEQEND
0
POLYLINE
8
0
62
252
66
1
40
20
41
20
0
VERTEX
8
0
10
3667
20
3306
0
VERTEX
8
0
10
3923
20
3050
0
SEQEND
0
POLYLINE
8
0
62
252
66
1
40
20
41
20
0
VERTEX
8
0
10
3667
20
3306
0
VERTEX
8
0
10
3651
20
3322
0
SEQEND
0
POLYLINE
8
0
62
1
66
1
40
20
41
20
0
VERTEX
8
0
10
3922
20
3331
0
VERTEX
8
0
10
4068
20
3331
0
SEQEND
0
POLYLINE
8
0
62
6
66
1
40
1
41
1
0
VERTEX
8
0
10
4375
20
1048
0
VERTEX
8
0
10
4355
20
1161
0
SEQEND
0
POLYLINE
8
0
62
5
66
1
40
1
41
1
0
VERTEX
8
0
10
4072
20
742
0
VERTEX
8
0
10
4066
20
858
0
SEQEND
0
POLYLINE
8
0
62
5
66
1
40
1
41
1
0
VERTEX
8
0
10
4122
20
745
0
VERTEX
8
0
10
4114
20
861
0
SEQEND
0
POLYLINE
8
0
62
5
66
1
40
1
41
1
0
VERTEX
8
0
10
4223
20
753
0
VERTEX
8
0
10
4211
20
870
0
SEQEND
0
POLYLINE
8
0
62
5
66
1
40
1
41
1
0
VERTEX
8
0
10
4164
20
851
0
VERTEX
8
0
10
4163
20
865
0
SEQEND
0
POLYLINE
8
0
62
3
66
1
40
1
41
1
0
VERTEX
8
0
10
4173
20
748
0
VERTEX
8
0
10
4164
20
851
0
SEQEND
0
POLYLINE
8
0
62
5
66
1
40
1
41
1
0
VERTEX
8
0
10
4323
20
764
0
VERTEX
8
0
10
4306
20
882
0
SEQEND
0
POLYLINE
8
0
62
5
66
1
40
1
41
1
0
VERTEX
8
0
10
4373
20
771
0
VERTEX
8
0
10
4354
20
889
0
SEQEND
0
POLYLINE
8
0
62
3
66
1
40
1
41
1
0
VERTEX
8
0
10
4423
20
778
0
VERTEX
8
0
10
4404
20
886
0
SEQEND
0
POLYLINE
8
0
62
5
66
1
40
1
41
1
0
VERTEX
8
0
10
4404
20
886
0
VERTEX
8
0
10
4402
20
897
0
SEQEND
0
POLYLINE
8
0
62
5
66
1
40
1
41
1
0
VERTEX
8
0
10
4273
20
758
0
VERTEX
8
0
10
4258
20
875
0
SEQEND
0
POLYLINE
8
0
62
3
66
1
40
1
41
1
0
VERTEX
8
0
10
4402
20
897
0
VERTEX
8
0
10
4375
20
1048
0
SEQEND
0
POLYLINE
8
0
62
3
66
1
40
1
41
1
0
VERTEX
8
0
10
4163
20
865
0
VERTEX
8
0
10
4149
20
1018
0
SEQEND
0
POLYLINE
8
0
62
3
66
1
40
1
41
1
0
VERTEX
8
0
10
4863
20
1032
0
VERTEX
8
0
10
4815
20
1166
0
SEQEND
0
POLYLINE
8
0
62
6
66
1
40
1
41
1
0
VERTEX
8
0
10
4871
20
1011
0
VERTEX
8
0
10
4870
20
1014
0
SEQEND
0
POLYLINE
8
0
62
5
66
1
40
1
41
1
0
VERTEX
8
0
10
4870
20
1014
0
VERTEX
8
0
10
4867
20
1021
0
SEQEND
0
POLYLINE
8
0
62
6
66
1
40
1
41
1
0
VERTEX
8
0
10
4867
20
1021
0
VERTEX
8
0
10
4863
20
1032
0
SEQEND
0
POLYLINE
8
0
62
3
66
1
40
1
41
1
0
VERTEX
8
0
10
4863
20
1032
0
VERTEX
8
0
10
4871
20
1011
0
VERTEX
8
0
10
4907
20
913
0
SEQEND
0
POLYLINE
8
0
62
3
66
1
40
1
41
1
0
VERTEX
8
0
10
4637
20
949
0
VERTEX
8
0
10
4597
20
1097
0
SEQEND
0
POLYLINE
8
0
62
5
66
1
40
1
41
1
0
VERTEX
8
0
10
4520
20
802
0
VERTEX
8
0
10
4496
20
915
0
SEQEND
0
POLYLINE
8
0
62
5
66
1
40
1
41
1
0
VERTEX
8
0
10
4569
20
813
0
VERTEX
8
0
10
4543
20
926
0
SEQEND
0
POLYLINE
8
0
62
5
66
1
40
1
41
1
0
VERTEX
8
0
10
4618
20
825
0
VERTEX
8
0
10
4590
20
937
0
SEQEND
0
POLYLINE
8
0
62
5
66
1
40
1
41
1
0
VERTEX
8
0
10
4667
20
838
0
VERTEX
8
0
10
4637
20
949
0
SEQEND
0
POLYLINE
8
0
62
5
66
1
40
1
41
1
0
VERTEX
8
0
10
4859
20
896
0
VERTEX
8
0
10
4822
20
1005
0
SEQEND
0
POLYLINE
8
0
62
5
66
1
40
1
41
1
0
VERTEX
8
0
10
4764
20
865
0
VERTEX
8
0
10
4730
20
976
0
SEQEND
0
POLYLINE
8
0
62
5
66
1
40
1
41
1
0
VERTEX
8
0
10
4811
20
880
0
VERTEX
8
0
10
4776
20
990
0
SEQEND
0
POLYLINE
8
0
62
5
66
1
40
1
41
1
0
VERTEX
8
0
10
4715
20
851
0
VERTEX
8
0
10
4684
20
962
0
SEQEND
0
POLYLINE
8
0
62
5
66
1
40
1
41
1
0
VERTEX
8
0
10
4472
20
787
0
VERTEX
8
0
10
4449
20
905
0
SEQEND
0
POLYLINE
8
0
62
6
66
1
40
1
41
1
0
VERTEX
8
0
10
4815
20
1166
0
VERTEX
8
0
10
4775
20
1274
0
SEQEND
0
POLYLINE
8
0
62
6
66
1
40
1
41
1
0
VERTEX
8
0
10
3468
20
1048
0
VERTEX
8
0
10
3488
20
1161
0
SEQEND
0
POLYLINE
8
0
62
5
66
1
40
1
41
1
0
VERTEX
8
0
10
3439
20
886
0
VERTEX
8
0
10
3441
20
897
0
SEQEND
0
POLYLINE
8
0
62
5
66
1
40
1
41
1
0
VERTEX
8
0
10
3323
20
802
0
VERTEX
8
0
10
3347
20
915
0
SEQEND
0
POLYLINE
8
0
62
5
66
1
40
1
41
1
0
VERTEX
8
0
10
3371
20
787
0
VERTEX
8
0
10
3394
20
905
0
SEQEND
0
POLYLINE
8
0
62
3
66
1
40
1
41
1
0
VERTEX
8
0
10
3421
20
779
0
VERTEX
8
0
10
3439
20
886
0
SEQEND
0
POLYLINE
8
0
62
5
66
1
40
1
41
1
0
VERTEX
8
0
10
3521
20
764
0
VERTEX
8
0
10
3537
20
882
0
SEQEND
0
POLYLINE
8
0
62
5
66
1
40
1
41
1
0
VERTEX
8
0
10
3571
20
758
0
VERTEX
8
0
10
3585
20
875
0
SEQEND
0
POLYLINE
8
0
62
5
66
1
40
1
41
1
0
VERTEX
8
0
10
3620
20
753
0
VERTEX
8
0
10
3632
20
870
0
SEQEND
0
POLYLINE
8
0
62
5
66
1
40
1
41
1
0
VERTEX
8
0
10
3471
20
771
0
VERTEX
8
0
10
3489
20
889
0
SEQEND
0
POLYLINE
8
0
62
5
66
1
40
1
41
1
0
VERTEX
8
0
10
3274
20
813
0
VERTEX
8
0
10
3300
20
926
0
SEQEND
0
POLYLINE
8
0
62
3
66
1
40
1
41
1
0
VERTEX
8
0
10
3441
20
897
0
VERTEX
8
0
10
3468
20
1048
0
SEQEND
0
POLYLINE
8
0
62
6
66
1
40
1
41
1
0
VERTEX
8
0
10
3922
20
1008
0
VERTEX
8
0
10
3922
20
1123
0
SEQEND
0
POLYLINE
8
0
62
5
66
1
40
1
41
1
0
VERTEX
8
0
10
3680
20
851
0
VERTEX
8
0
10
3681
20
865
0
SEQEND
0
POLYLINE
8
0
62
3
66
1
40
1
41
1
0
VERTEX
8
0
10
3670
20
748
0
VERTEX
8
0
10
3680
20
851
0
SEQEND
0
POLYLINE
8
0
62
5
66
1
40
1
41
1
0
VERTEX
8
0
10
3821
20
740
0
VERTEX
8
0
10
3825
20
856
0
SEQEND
0
POLYLINE
8
0
62
5
66
1
40
1
41
1
0
VERTEX
8
0
10
3771
20
742
0
VERTEX
8
0
10
3777
20
858
0
SEQEND
0
POLYLINE
8
0
62
5
66
1
40
1
41
1
0
VERTEX
8
0
10
3721
20
745
0
VERTEX
8
0
10
3729
20
861
0
SEQEND
0
POLYLINE
8
0
62
5
66
1
40
1
41
1
0
VERTEX
8
0
10
3871
20
739
0
VERTEX
8
0
10
3873
20
855
0
SEQEND
0
POLYLINE
8
0
62
5
66
1
40
1
41
1
0
VERTEX
8
0
10
3922
20
739
0
VERTEX
8
0
10
3922
20
855
0
SEQEND
0
POLYLINE
8
0
62
5
66
1
40
1
41
1
0
VERTEX
8
0
10
3972
20
739
0
VERTEX
8
0
10
3970
20
855
0
SEQEND
0
POLYLINE
8
0
62
5
66
1
40
1
41
1
0
VERTEX
8
0
10
4022
20
740
0
VERTEX
8
0
10
4018
20
856
0
SEQEND
0
POLYLINE
8
0
62
3
66
1
40
1
41
1
0
VERTEX
8
0
10
3922
20
855
0
VERTEX
8
0
10
3922
20
1008
0
SEQEND
0
POLYLINE
8
0
62
3
66
1
40
1
41
1
0
VERTEX
8
0
10
3681
20
865
0
VERTEX
8
0
10
3694
20
1018
0
SEQEND
0
POLYLINE
8
0
62
5
66
1
40
1
41
1
0
VERTEX
8
0
10
5849
20
1479
0
VERTEX
8
0
10
5772
20
1565
0
SEQEND
0
POLYLINE
8
0
62
5
66
1
40
1
41
1
0
VERTEX
8
0
10
5708
20
1490
0
VERTEX
8
0
10
5699
20
1501
0
SEQEND
0
POLYLINE
8
0
62
5
66
1
40
1
41
1
0
VERTEX
8
0
10
5812
20
1445
0
VERTEX
8
0
10
5735
20
1533
0
SEQEND
0
POLYLINE
8
0
62
3
66
1
40
1
41
1
0
VERTEX
8
0
10
5774
20
1412
0
VERTEX
8
0
10
5708
20
1490
0
SEQEND
0
POLYLINE
8
0
62
5
66
1
40
1
41
1
0
VERTEX
8
0
10
5923
20
1547
0
VERTEX
8
0
10
5842
20
1631
0
SEQEND
0
POLYLINE
8
0
62
5
66
1
40
1
41
1
0
VERTEX
8
0
10
5958
20
1583
0
VERTEX
8
0
10
5877
20
1664
0
SEQEND
0
POLYLINE
8
0
62
5
66
1
40
1
41
1
0
VERTEX
8
0
10
5886
20
1513
0
VERTEX
8
0
10
5807
20
1597
0
SEQEND
0
POLYLINE
8
0
62
3
66
1
40
1
41
1
0
VERTEX
8
0
10
5298
20
1236
0
VERTEX
8
0
10
5304
20
1225
0
SEQEND
0
POLYLINE
8
0
62
6
66
1
40
1
41
1
0
VERTEX
8
0
10
5312
20
1212
0
VERTEX
8
0
10
5298
20
1236
0
SEQEND
0
POLYLINE
8
0
62
5
66
1
40
1
41
1
0
VERTEX
8
0
10
5304
20
1225
0
VERTEX
8
0
10
5312
20
1212
0
SEQEND
0
POLYLINE
8
0
62
6
66
1
40
1
41
1
0
VERTEX
8
0
10
5298
20
1236
0
VERTEX
8
0
10
5297
20
1237
0
VERTEX
8
0
10
5170
20
1458
0
SEQEND
0
POLYLINE
8
0
62
5
66
1
40
1
41
1
0
VERTEX
8
0
10
5448
20
1177
0
VERTEX
8
0
10
5387
20
1275
0
SEQEND
0
POLYLINE
8
0
62
5
66
1
40
1
41
1
0
VERTEX
8
0
10
5657
20
1317
0
VERTEX
8
0
10
5585
20
1411
0
SEQEND
0
POLYLINE
8
0
62
5
66
1
40
1
41
1
0
VERTEX
8
0
10
5514
20
1344
0
VERTEX
8
0
10
5507
20
1355
0
SEQEND
0
POLYLINE
8
0
62
5
66
1
40
1
41
1
0
VERTEX
8
0
10
5617
20
1286
0
VERTEX
8
0
10
5547
20
1383
0
SEQEND
0
POLYLINE
8
0
62
3
66
1
40
1
41
1
0
VERTEX
8
0
10
5576
20
1256
0
VERTEX
8
0
10
5514
20
1344
0
SEQEND
0
POLYLINE
8
0
62
5
66
1
40
1
41
1
0
VERTEX
8
0
10
5532
20
1232
0
VERTEX
8
0
10
5468
20
1327
0
SEQEND
0
POLYLINE
8
0
62
5
66
1
40
1
41
1
0
VERTEX
8
0
10
5490
20
1204
0
VERTEX
8
0
10
5427
20
1301
0
SEQEND
0
POLYLINE
8
0
62
3
66
1
40
1
41
1
0
VERTEX
8
0
10
5507
20
1355
0
VERTEX
8
0
10
5419
20
1481
0
SEQEND
0
POLYLINE
8
0
62
5
66
1
40
1
41
1
0
VERTEX
8
0
10
5000
20
949
0
VERTEX
8
0
10
4957
20
1056
0
SEQEND
0
POLYLINE
8
0
62
5
66
1
40
1
41
1
0
VERTEX
8
0
10
5047
20
968
0
VERTEX
8
0
10
5002
20
1074
0
SEQEND
0
POLYLINE
8
0
62
5
66
1
40
1
41
1
0
VERTEX
8
0
10
5139
20
1009
0
VERTEX
8
0
10
5090
20
1114
0
SEQEND
0
POLYLINE
8
0
62
5
66
1
40
1
41
1
0
VERTEX
8
0
10
5093
20
988
0
VERTEX
8
0
10
5046
20
1094
0
SEQEND
0
POLYLINE
8
0
62
5
66
1
40
1
41
1
0
VERTEX
8
0
10
5184
20
1031
0
VERTEX
8
0
10
5134
20
1135
0
SEQEND
0
POLYLINE
8
0
62
5
66
1
40
1
41
1
0
VERTEX
8
0
10
5229
20
1053
0
VERTEX
8
0
10
5177
20
1156
0
SEQEND
0
POLYLINE
8
0
62
5
66
1
40
1
41
1
0
VERTEX
8
0
10
4954
20
931
0
VERTEX
8
0
10
4912
20
1038
0
SEQEND
0
POLYLINE
8
0
62
5
66
1
40
1
41
1
0
VERTEX
8
0
10
5274
20
1077
0
VERTEX
8
0
10
5219
20
1178
0
SEQEND
0
POLYLINE
8
0
62
5
66
1
40
1
41
1
0
VERTEX
8
0
10
5405
20
1151
0
VERTEX
8
0
10
5345
20
1250
0
SEQEND
0
POLYLINE
8
0
62
6
66
1
40
1
41
1
0
VERTEX
8
0
10
5362
20
1125
0
VERTEX
8
0
10
5312
20
1212
0
SEQEND
0
POLYLINE
8
0
62
5
66
1
40
1
41
1
0
VERTEX
8
0
10
5318
20
1101
0
VERTEX
8
0
10
5262
20
1201
0
SEQEND
0
POLYLINE
8
0
62
3
66
1
40
1
41
1
0
VERTEX
8
0
10
5090
20
1114
0
VERTEX
8
0
10
5025
20
1253
0
SEQEND
0
POLYLINE
8
0
62
5
66
1
40
1
41
1
0
VERTEX
8
0
10
5697
20
1348
0
VERTEX
8
0
10
5624
20
1441
0
SEQEND
0
POLYLINE
8
0
62
5
66
1
40
1
41
1
0
VERTEX
8
0
10
5735
20
1379
0
VERTEX
8
0
10
5661
20
1471
0
SEQEND
0
POLYLINE
8
0
62
3
66
1
40
1
41
1
0
VERTEX
8
0
10
5699
20
1501
0
VERTEX
8
0
10
5600
20
1619
0
SEQEND
0
POLYLINE
8
0
62
5
66
1
40
1
41
1
0
VERTEX
8
0
10
6028
20
1655
0
VERTEX
8
0
10
5944
20
1734
0
SEQEND
0
POLYLINE
8
0
62
5
66
1
40
1
41
1
0
VERTEX
8
0
10
5994
20
1618
0
VERTEX
8
0
10
5910
20
1699
0
SEQEND
0
POLYLINE
8
0
62
6
66
1
40
1
41
1
0
VERTEX
8
0
10
1810
20
3619
0
VERTEX
8
0
10
3922
20
3619
0
VERTEX
8
0
10
6034
20
3619
0
SEQEND
0
POLYLINE
8
0
62
3
66
1
40
1
41
1
0
VERTEX
8
0
10
5877
20
1664
0
VERTEX
8
0
10
5768
20
1773
0
SEQEND
0
POLYLINE
8
0
62
6
66
1
40
1
41
1
0
VERTEX
8
0
10
5600
20
1619
0
VERTEX
8
0
10
5526
20
1707
0
SEQEND
0
POLYLINE
8
0
62
5
66
1
40
1
41
1
0
VERTEX
8
0
10
3225
20
6414
0
VERTEX
8
0
10
3253
20
6302
0
SEQEND
0
POLYLINE
8
0
62
5
66
1
40
1
41
1
0
VERTEX
8
0
10
3225
20
825
0
VERTEX
8
0
10
3253
20
937
0
SEQEND
0
POLYLINE
8
0
62
6
66
1
40
1
41
1
0
VERTEX
8
0
10
1890
20
3043
0
VERTEX
8
0
10
5953
20
3043
0
SEQEND
0
POLYLINE
8
0
62
5
66
1
40
1
41
1
0
VERTEX
8
0
10
6510
20
2357
0
VERTEX
8
0
10
6406
20
2407
0
SEQEND
0
POLYLINE
8
0
62
5
66
1
40
1
41
1
0
VERTEX
8
0
10
6592
20
4698
0
VERTEX
8
0
10
6485
20
4655
0
SEQEND
0
POLYLINE
8
0
62
5
66
1
40
1
41
1
0
VERTEX
8
0
10
6573
20
4745
0
VERTEX
8
0
10
6467
20
4700
0
SEQEND
0
POLYLINE
8
0
62
5
66
1
40
1
41
1
0
VERTEX
8
0
10
6553
20
4791
0
VERTEX
8
0
10
6447
20
4744
0
SEQEND
0
POLYLINE
8
0
62
5
66
1
40
1
41
1
0
VERTEX
8
0
10
6532
20
4837
0
VERTEX
8
0
10
6427
20
4788
0
SEQEND
0
POLYLINE
8
0
62
5
66
1
40
1
41
1
0
VERTEX
8
0
10
6510
20
4882
0
VERTEX
8
0
10
6406
20
4832
0
SEQEND
0
POLYLINE
8
0
62
5
66
1
40
1
41
1
0
VERTEX
8
0
10
6592
20
2541
0
VERTEX
8
0
10
6485
20
2584
0
SEQEND
0
POLYLINE
8
0
62
5
66
1
40
1
41
1
0
VERTEX
8
0
10
6573
20
2494
0
VERTEX
8
0
10
6467
20
2539
0
SEQEND
0
POLYLINE
8
0
62
5
66
1
40
1
41
1
0
VERTEX
8
0
10
6553
20
2448
0
VERTEX
8
0
10
6447
20
2495
0
SEQEND
0
POLYLINE
8
0
62
5
66
1
40
1
41
1
0
VERTEX
8
0
10
6532
20
2402
0
VERTEX
8
0
10
6427
20
2451
0
SEQEND
0
POLYLINE
8
0
62
3
66
1
40
1
41
1
0
VERTEX
8
0
10
6592
20
2904
0
VERTEX
8
0
10
6444
20
2944
0
SEQEND
0
POLYLINE
8
0
62
6
66
1
40
1
41
1
0
VERTEX
8
0
10
6520
20
2673
0
VERTEX
8
0
10
6390
20
2721
0
SEQEND
0
POLYLINE
8
0
62
6
66
1
40
1
41
1
0
VERTEX
8
0
10
6493
20
3166
0
VERTEX
8
0
10
6380
20
3186
0
SEQEND
0
POLYLINE
8
0
62
6
66
1
40
1
41
1
0
VERTEX
8
0
10
6533
20
3619
0
VERTEX
8
0
10
6418
20
3619
0
SEQEND
0
POLYLINE
8
0
62
6
66
1
40
1
41
1
0
VERTEX
8
0
10
6493
20
4073
0
VERTEX
8
0
10
6380
20
4053
0
SEQEND
0
POLYLINE
8
0
62
3
66
1
40
1
41
1
0
VERTEX
8
0
10
6592
20
4335
0
VERTEX
8
0
10
6444
20
4295
0
SEQEND
0
ENDSEC
0
EOF
